  0
SECTION
  2
HEADER
  9
$ACADVER
  1
AC1015
  9
$ACADMAINTVER
 70
     6
  9
$DWGCODEPAGE
  3
ANSI_1252
  9
$INSBASE
 10
0.0
 20
0.0
 30
0.0
  9
$EXTMIN
 10
-450.0
 20
-65.0
 30
0.0
  9
$EXTMAX
 10
450.0
 20
0.0
 30
0.0
  9
$LIMMIN
 10
0.0
 20
0.0
  9
$LIMMAX
 10
420.0
 20
297.0
  9
$ORTHOMODE
 70
     0
  9
$REGENMODE
 70
     1
  9
$FILLMODE
 70
     1
  9
$QTEXTMODE
 70
     0
  9
$MIRRTEXT
 70
     1
  9
$LTSCALE
 40
1.0
  9
$ATTMODE
 70
     1
  9
$TEXTSIZE
 40
3.5
  9
$TRACEWID
 40
1.0
  9
$TEXTSTYLE
  7
Standard
  9
$CLAYER
  8
0
  9
$CELTYPE
  6
ByLayer
  9
$CECOLOR
 62
   256
  9
$CELTSCALE
 40
1.0
  9
$DISPSILH
 70
     0
  9
$DIMSCALE
 40
1.0
  9
$DIMASZ
 40
3.302
  9
$DIMEXO
 40
1.0
  9
$DIMDLI
 40
3.75
  9
$DIMRND
 40
0.0
  9
$DIMDLE
 40
0.0
  9
$DIMEXE
 40
1.0
  9
$DIMTP
 40
0.0
  9
$DIMTM
 40
0.0
  9
$DIMTXT
 40
3.5
  9
$DIMCEN
 40
2.5
  9
$DIMTSZ
 40
0.0
  9
$DIMTOL
 70
     0
  9
$DIMLIM
 70
     0
  9
$DIMTIH
 70
     1
  9
$DIMTOH
 70
     1
  9
$DIMSE1
 70
     0
  9
$DIMSE2
 70
     0
  9
$DIMTAD
 70
     1
  9
$DIMZIN
 70
     0
  9
$DIMBLK
  1

  9
$DIMASO
 70
     1
  9
$DIMSHO
 70
     1
  9
$DIMPOST
  1

  9
$DIMAPOST
  1

  9
$DIMALT
 70
     0
  9
$DIMALTD
 70
     3
  9
$DIMALTF
 40
0.0393700787
  9
$DIMLFAC
 40
1.0
  9
$DIMTOFL
 70
     1
  9
$DIMTVP
 40
0.0
  9
$DIMTIX
 70
     0
  9
$DIMSOXD
 70
     0
  9
$DIMSAH
 70
     0
  9
$DIMBLK1
  1

  9
$DIMBLK2
  1

  9
$DIMSTYLE
  2
ISO-25
  9
$DIMCLRD
 70
     0
  9
$DIMCLRE
 70
     0
  9
$DIMCLRT
 70
     0
  9
$DIMTFAC
 40
1.0
  9
$DIMGAP
 40
1.524
  9
$DIMJUST
 70
     0
  9
$DIMSD1
 70
     0
  9
$DIMSD2
 70
     0
  9
$DIMTOLJ
 70
     0
  9
$DIMTZIN
 70
     0
  9
$DIMALTZ
 70
     0
  9
$DIMALTTZ
 70
     0
  9
$DIMUPT
 70
     0
  9
$DIMDEC
 70
     2
  9
$DIMTDEC
 70
     2
  9
$DIMALTU
 70
     2
  9
$DIMALTTD
 70
     3
  9
$DIMTXSTY
  7
Standard
  9
$DIMAUNIT
 70
     0
  9
$DIMADEC
 70
     2
  9
$DIMALTRND
 40
0.0
  9
$DIMAZIN
 70
     0
  9
$DIMDSEP
 70
    44
  9
$DIMATFIT
 70
     3
  9
$DIMFRAC
 70
     0
  9
$DIMLDRBLK
  1

  9
$DIMLUNIT
 70
     2
  9
$DIMLWD
 70
    -2
  9
$DIMLWE
 70
    -2
  9
$DIMTMOVE
 70
     0
  9
$LUNITS
 70
     2
  9
$LUPREC
 70
     2
  9
$SKETCHINC
 40
1.0
  9
$FILLETRAD
 40
10.0
  9
$AUNITS
 70
     0
  9
$AUPREC
 70
     2
  9
$MENU
  1
.
  9
$ELEVATION
 40
0.0
  9
$PELEVATION
 40
0.0
  9
$THICKNESS
 40
0.0
  9
$LIMCHECK
 70
     0
  9
$CHAMFERA
 40
0.0
  9
$CHAMFERB
 40
0.0
  9
$CHAMFERC
 40
0.0
  9
$CHAMFERD
 40
0.0
  9
$SKPOLY
 70
     0
  9
$TDCREATE
 40
2459681.451263623
  9
$TDUCREATE
 40
2459681.409596956
  9
$TDUPDATE
 40
2459681.451293796
  9
$TDUUPDATE
 40
2459681.40962713
  9
$TDINDWG
 40
0.0000000116
  9
$TDUSRTIMER
 40
0.0000000116
  9
$USRTIMER
 70
     1
  9
$ANGBASE
 50
0.0
  9
$ANGDIR
 70
     0
  9
$PDMODE
 70
     0
  9
$PDSIZE
 40
-1.0
  9
$PLINEWID
 40
0.0
  9
$SPLFRAME
 70
     0
  9
$SPLINETYPE
 70
     6
  9
$SPLINESEGS
 70
     8
  9
$HANDSEED
  5
27D
  9
$SURFTAB1
 70
     6
  9
$SURFTAB2
 70
     6
  9
$SURFTYPE
 70
     6
  9
$SURFU
 70
     6
  9
$SURFV
 70
     6
  9
$UCSBASE
  2

  9
$UCSNAME
  2

  9
$UCSORG
 10
0.0
 20
0.0
 30
0.0
  9
$UCSXDIR
 10
1.0
 20
0.0
 30
0.0
  9
$UCSYDIR
 10
0.0
 20
1.0
 30
0.0
  9
$UCSORTHOREF
  2

  9
$UCSORTHOVIEW
 70
     0
  9
$UCSORGTOP
 10
0.0
 20
0.0
 30
0.0
  9
$UCSORGBOTTOM
 10
0.0
 20
0.0
 30
0.0
  9
$UCSORGLEFT
 10
0.0
 20
0.0
 30
0.0
  9
$UCSORGRIGHT
 10
0.0
 20
0.0
 30
0.0
  9
$UCSORGFRONT
 10
0.0
 20
0.0
 30
0.0
  9
$UCSORGBACK
 10
0.0
 20
0.0
 30
0.0
  9
$PUCSBASE
  2

  9
$PUCSNAME
  2

  9
$PUCSORG
 10
0.0
 20
0.0
 30
0.0
  9
$PUCSXDIR
 10
1.0
 20
0.0
 30
0.0
  9
$PUCSYDIR
 10
0.0
 20
1.0
 30
0.0
  9
$PUCSORTHOREF
  2

  9
$PUCSORTHOVIEW
 70
     0
  9
$PUCSORGTOP
 10
0.0
 20
0.0
 30
0.0
  9
$PUCSORGBOTTOM
 10
0.0
 20
0.0
 30
0.0
  9
$PUCSORGLEFT
 10
0.0
 20
0.0
 30
0.0
  9
$PUCSORGRIGHT
 10
0.0
 20
0.0
 30
0.0
  9
$PUCSORGFRONT
 10
0.0
 20
0.0
 30
0.0
  9
$PUCSORGBACK
 10
0.0
 20
0.0
 30
0.0
  9
$USERI1
 70
     0
  9
$USERI2
 70
     0
  9
$USERI3
 70
     0
  9
$USERI4
 70
     0
  9
$USERI5
 70
     0
  9
$USERR1
 40
0.0
  9
$USERR2
 40
0.0
  9
$USERR3
 40
0.0
  9
$USERR4
 40
0.0
  9
$USERR5
 40
0.0
  9
$WORLDVIEW
 70
     1
  9
$SHADEDGE
 70
     3
  9
$SHADEDIF
 70
    70
  9
$TILEMODE
 70
     1
  9
$MAXACTVP
 70
    64
  9
$PINSBASE
 10
0.0
 20
0.0
 30
0.0
  9
$PLIMCHECK
 70
     0
  9
$PEXTMIN
 10
-450.0
 20
-290.0
 30
0.0
  9
$PEXTMAX
 10
450.0
 20
260.0
 30
0.0
  9
$PLIMMIN
 10
-520.0389105058
 20
-316.2645914397
  9
$PLIMMAX
 10
520.0389105058
 20
419.1439688716
  9
$UNITMODE
 70
     0
  9
$VISRETAIN
 70
     1
  9
$PLINEGEN
 70
     0
  9
$PSLTSCALE
 70
     1
  9
$TREEDEPTH
 70
  3020
  9
$CMLSTYLE
  2
Standard
  9
$CMLJUST
 70
     0
  9
$CMLSCALE
 40
20.0
  9
$PROXYGRAPHICS
 70
     1
  9
$MEASUREMENT
 70
     1
  9
$CELWEIGHT
370
    -1
  9
$ENDCAPS
280
     0
  9
$JOINSTYLE
280
     0
  9
$LWDISPLAY
290
     1
  9
$INSUNITS
 70
     4
  9
$HYPERLINKBASE
  1

  9
$STYLESHEET
  1

  9
$XEDIT
290
     1
  9
$CEPSNTYPE
380
     0
  9
$PSTYLEMODE
290
     1
  9
$FINGERPRINTGUID
  2
{21fcb59a-69c9-4295-a611-30f9f50b1eb4}
  9
$VERSIONGUID
  2
{FAEB1C32-E019-11D5-929B-00C0DF256EC4}
  9
$EXTNAMES
290
     1
  9
$PSVPSCALE
 40
0.0
  9
$OLESTARTUP
290
     0
  0
ENDSEC
  0
SECTION
  2
CLASSES
  0
CLASS
  1
ACDBDICTIONARYWDFLT
  2
AcDbDictionaryWithDefault
  3
ObjectDBX Classes
 90
        0
280
     0
281
     0
  0
CLASS
  1
VISUALSTYLE
  2
AcDbVisualStyle
  3
ObjectDBX Classes
 90
     4095
280
     0
281
     0
  0
CLASS
  1
MATERIAL
  2
AcDbMaterial
  3
ObjectDBX Classes
 90
     1153
280
     0
281
     0
  0
CLASS
  1
SCALE
  2
AcDbScale
  3
ObjectDBX Classes
 90
     1153
280
     0
281
     0
  0
CLASS
  1
TABLESTYLE
  2
AcDbTableStyle
  3
ObjectDBX Classes
 90
     4095
280
     0
281
     0
  0
CLASS
  1
MLEADERSTYLE
  2
AcDbMLeaderStyle
  3
ACDB_MLEADERSTYLE_CLASS
 90
     4095
280
     0
281
     0
  0
CLASS
  1
SUN
  2
AcDbSun
  3
SCENEOE
 90
     1153
280
     0
281
     0
  0
CLASS
  1
ACDBPLACEHOLDER
  2
AcDbPlaceHolder
  3
ObjectDBX Classes
 90
        0
280
     0
281
     0
  0
CLASS
  1
LAYOUT
  2
AcDbLayout
  3
ObjectDBX Classes
 90
        0
280
     0
281
     0
  0
ENDSEC
  0
SECTION
  2
TABLES
  0
TABLE
  2
VPORT
  5
8
330
0
100
AcDbSymbolTable
 70
     1
  0
VPORT
  5
29
330
8
100
AcDbSymbolTableRecord
100
AcDbViewportTableRecord
  2
*Active
 70
     0
 10
0.0
 20
0.0
 11
1.0
 21
1.0
 12
0.0
 22
-32.5
 13
0.0
 23
0.0
 14
10.0
 24
10.0
 15
10.0
 25
10.0
 16
0.0
 26
0.0
 36
1.0
 17
0.0
 27
0.0
 37
0.0
 40
66.3
 41
13.8461538462
 42
50.0
 43
0.0
 44
0.0
 50
0.0
 51
0.0
 71
     0
 72
   100
 73
     1
 74
     3
 75
     0
 76
     0
 77
     0
 78
     0
281
     0
 65
     1
110
0.0
120
0.0
130
0.0
111
1.0
121
0.0
131
0.0
112
0.0
122
1.0
132
0.0
 79
     0
146
0.0
  0
ENDTAB
  0
TABLE
  2
LTYPE
  5
5
330
0
100
AcDbSymbolTable
 70
     6
  0
LTYPE
  5
14
330
5
100
AcDbSymbolTableRecord
100
AcDbLinetypeTableRecord
  2
ByBlock
 70
     0
  3

 72
    65
 73
     0
 40
0.0
  0
LTYPE
  5
15
330
5
100
AcDbSymbolTableRecord
100
AcDbLinetypeTableRecord
  2
ByLayer
 70
     0
  3

 72
    65
 73
     0
 40
0.0
  0
LTYPE
  5
16
330
5
100
AcDbSymbolTableRecord
100
AcDbLinetypeTableRecord
  2
Continuous
 70
     0
  3
Solid line
 72
    65
 73
     0
 40
0.0
  0
LTYPE
  5
6E
330
5
100
AcDbSymbolTableRecord
100
AcDbLinetypeTableRecord
  2
HIDDEN
 70
     0
  3
Hidden __ __ __ __ __ __ __ __ __ __ __ __ __ __
 72
    65
 73
     2
 40
1.905
 49
1.27
 74
     0
 49
-0.635
 74
     0
  0
LTYPE
  5
6F
330
5
100
AcDbSymbolTableRecord
100
AcDbLinetypeTableRecord
  2
PHANTOM
 70
     0
  3
Phantom ______  __  __  ______  __  __  ______
 72
    65
 73
     6
 40
12.7
 49
6.35
 74
     0
 49
-1.27
 74
     0
 49
1.27
 74
     0
 49
-1.27
 74
     0
 49
1.27
 74
     0
 49
-1.27
 74
     0
  0
LTYPE
  5
70
330
5
100
AcDbSymbolTableRecord
100
AcDbLinetypeTableRecord
  2
CENTER
 70
     0
  3
Center ____ _ ____ _ ____ _ ____ _ ____ _ ____
 72
    65
 73
     4
 40
10.16
 49
6.35
 74
     0
 49
-1.27
 74
     0
 49
1.27
 74
     0
 49
-1.27
 74
     0
  0
LTYPE
  5
71
330
5
100
AcDbSymbolTableRecord
100
AcDbLinetypeTableRecord
  2
CENTERX2
 70
     0
  3
Center (2x) ________  __  ________  __  _____
 72
    65
 73
     4
 40
20.32
 49
12.7
 74
     0
 49
-2.54
 74
     0
 49
2.54
 74
     0
 49
-2.54
 74
     0
  0
LTYPE
  5
72
330
5
100
AcDbSymbolTableRecord
100
AcDbLinetypeTableRecord
  2
DOT2
 70
     0
  3
Dot (.5x) ........................................
 72
    65
 73
     2
 40
0.635
 49
0.0
 74
     0
 49
-0.635
 74
     0
  0
ENDTAB
  0
TABLE
  2
LAYER
  5
2
330
0
100
AcDbSymbolTable
 70
     1
  0
LAYER
  5
10
330
2
100
AcDbSymbolTableRecord
100
AcDbLayerTableRecord
  2
0
 70
     0
 62
     7
  6
Continuous
370
    -3
390
F
  0
ENDTAB
  0
TABLE
  2
STYLE
  5
3
330
0
100
AcDbSymbolTable
 70
     1
  0
STYLE
  5
11
330
3
100
AcDbSymbolTableRecord
100
AcDbTextStyleTableRecord
  2
Standard
 70
     0
 40
0.0
 41
1.0
 50
0.0
 71
     0
 42
3.5
  3
txt
  4

  0
ENDTAB
  0
TABLE
  2
VIEW
  5
6
330
0
100
AcDbSymbolTable
 70
     0
  0
ENDTAB
  0
TABLE
  2
UCS
  5
7
330
0
100
AcDbSymbolTable
 70
     0
  0
ENDTAB
  0
TABLE
  2
APPID
  5
9
330
0
100
AcDbSymbolTable
 70
     1
  0
APPID
  5
12
330
9
100
AcDbSymbolTableRecord
100
AcDbRegAppTableRecord
  2
ACAD
 70
     0
  0
ENDTAB
  0
TABLE
  2
DIMSTYLE
  5
A
330
0
100
AcDbSymbolTable
 70
     1
100
AcDbDimStyleTable
  0
DIMSTYLE
105
27
330
A
100
AcDbSymbolTableRecord
100
AcDbDimStyleTableRecord
  2
ISO-25
 70
     0
 41
2.5
 42
0.625
 43
3.75
 44
1.25
 73
     0
 74
     0
 77
     1
 78
     8
140
2.5
141
2.5
143
0.0393700787
147
0.625
171
     3
172
     1
178
     0
271
     2
272
     2
274
     3
278
    44
283
     0
284
     8
340
11
  0
ENDTAB
  0
TABLE
  2
BLOCK_RECORD
  5
1
330
0
100
AcDbSymbolTable
 70
     4
  0
BLOCK_RECORD
  5
1F
330
1
100
AcDbSymbolTableRecord
100
AcDbBlockTableRecord
  2
*Model_Space
340
22
  0
BLOCK_RECORD
  5
1B
330
1
100
AcDbSymbolTableRecord
100
AcDbBlockTableRecord
  2
*Paper_Space
340
1E
  0
BLOCK_RECORD
  5
23
330
1
100
AcDbSymbolTableRecord
100
AcDbBlockTableRecord
  2
*Paper_Space0
340
26
  0
BLOCK_RECORD
  5
14F
330
1
100
AcDbSymbolTableRecord
100
AcDbBlockTableRecord
  2
*Paper_Space1
340
150
  0
BLOCK_RECORD
  5
16F
330
1
100
AcDbSymbolTableRecord
100
AcDbBlockTableRecord
  2
*Paper_Space2
340
170
  0
BLOCK_RECORD
  5
1A1
330
1
100
AcDbSymbolTableRecord
100
AcDbBlockTableRecord
  2
*Paper_Space3
340
1A2
  0
ENDTAB
  0
ENDSEC
  0
SECTION
  2
BLOCKS
  0
BLOCK
  5
20
330
1F
100
AcDbEntity
  8
0
100
AcDbBlockBegin
  2
*Model_Space
 70
     0
 10
0.0
 20
0.0
 30
0.0
  3
*Model_Space
  1

  0
ENDBLK
  5
21
330
1F
100
AcDbEntity
  8
0
100
AcDbBlockEnd
  0
BLOCK
  5
1C
330
1B
100
AcDbEntity
 67
     1
  8
0
100
AcDbBlockBegin
  2
*Paper_Space
 70
     0
 10
0.0
 20
0.0
 30
0.0
  3
*Paper_Space
  1

  0
ENDBLK
  5
1D
330
1B
100
AcDbEntity
 67
     1
  8
0
100
AcDbBlockEnd
  0
BLOCK
  5
24
330
23
100
AcDbEntity
  8
0
100
AcDbBlockBegin
  2
*Paper_Space0
 70
     0
 10
0.0
 20
0.0
 30
0.0
  3
*Paper_Space0
  1

  0
LINE
  5
13F
330
23
100
AcDbEntity
  8
0
  6
Continuous
 62
     7
370
    25
100
AcDbLine
 10
25.0
 20
249.0
 30
0.0
 11
65.0
 21
249.0
 31
0.0
  0
LINE
  5
140
330
23
100
AcDbEntity
  8
0
  6
Continuous
 62
     7
370
    25
100
AcDbLine
 10
26.0
 20
260.0
 30
0.0
 11
26.0
 21
248.0
 31
0.0
  0
LINE
  5
141
330
23
100
AcDbEntity
  8
0
  6
Continuous
 62
     7
370
    25
100
AcDbLine
 10
65.0
 20
259.0
 30
0.0
 11
25.0
 21
259.0
 31
0.0
  0
LINE
  5
142
330
23
100
AcDbEntity
  8
0
  6
Continuous
 62
     7
370
    25
100
AcDbLine
 10
64.0
 20
248.0
 30
0.0
 11
64.0
 21
260.0
 31
0.0
  0
LINE
  5
143
330
23
100
AcDbEntity
  8
0
  6
Continuous
 62
     7
370
    25
100
AcDbLine
 10
65.0
 20
259.0
 30
0.0
 11
65.0
 21
249.0
 31
0.0
  0
LINE
  5
144
330
23
100
AcDbEntity
  8
0
  6
Continuous
 62
     7
370
    25
100
AcDbLine
 10
26.0
 20
260.0
 30
0.0
 11
64.0
 21
260.0
 31
0.0
  0
LINE
  5
145
330
23
100
AcDbEntity
  8
0
  6
Continuous
 62
     7
370
    25
100
AcDbLine
 10
64.0
 20
248.0
 30
0.0
 11
26.0
 21
248.0
 31
0.0
  0
LINE
  5
146
330
23
100
AcDbEntity
  8
0
  6
Continuous
 62
     7
370
    25
100
AcDbLine
 10
0.0
 20
-250.0
 30
0.0
 11
25.0
 21
-250.0
 31
0.0
  0
LINE
  5
147
330
23
100
AcDbEntity
  8
0
  6
Continuous
 62
     7
370
    25
100
AcDbLine
 10
0.0
 20
260.0
 30
0.0
 11
0.0
 21
-290.0
 31
0.0
  0
LINE
  5
148
330
23
100
AcDbEntity
  8
0
  6
Continuous
 62
     7
370
    25
100
AcDbLine
 10
25.0
 20
260.0
 30
0.0
 11
0.0
 21
260.0
 31
0.0
  0
LINE
  5
149
330
23
100
AcDbEntity
  8
0
  6
Continuous
 62
     7
370
    25
100
AcDbLine
 10
25.0
 20
260.0
 30
0.0
 11
25.0
 21
-290.0
 31
0.0
  0
LINE
  5
14A
330
23
100
AcDbEntity
  8
0
  6
Continuous
 62
     7
370
    25
100
AcDbLine
 10
25.0
 20
-290.0
 30
0.0
 11
0.0
 21
-290.0
 31
0.0
  0
ARC
  5
14B
330
23
100
AcDbEntity
  8
0
  6
Continuous
 62
     7
370
    25
100
AcDbCircle
 10
26.0
 20
259.0
 30
0.0
 40
1.0
100
AcDbArc
 50
90.0
 51
180.0
  0
ARC
  5
14C
330
23
100
AcDbEntity
  8
0
  6
Continuous
 62
     7
370
    25
100
AcDbCircle
 10
64.0
 20
259.0
 30
0.0
 40
1.0
100
AcDbArc
 50
0.0
 51
90.0
  0
ARC
  5
14D
330
23
100
AcDbEntity
  8
0
  6
Continuous
 62
     7
370
    25
100
AcDbCircle
 10
26.0
 20
249.0
 30
0.0
 40
0.9999999999999751
100
AcDbArc
 50
180.0
 51
270.0
  0
ARC
  5
14E
330
23
100
AcDbEntity
  8
0
  6
Continuous
 62
     7
370
    25
100
AcDbCircle
 10
64.0
 20
249.0
 30
0.0
 40
0.9999999999999147
100
AcDbArc
 50
270.0
 51
0.0
  0
VIEWPORT
  5
275
330
23
100
AcDbEntity
  8
0
100
AcDbViewport
 10
0.0
 20
0.0
 30
0.0
 40
205.6
 41
156.0
 68
     1
 69
     1
 12
0.0
 22
-32.5
 13
0.0
 23
0.0
 14
10.0
 24
10.0
 15
10.0
 25
10.0
 16
0.0
 26
0.0
 36
1.0
 17
0.0
 27
0.0
 37
0.0
 42
50.0
 43
0.0
 44
0.0
 45
696.5369649805
 50
0.0
 51
0.0
 72
   100
 90
   557152
  1

281
     0
 71
     1
 74
     0
110
0.0
120
0.0
130
0.0
111
1.0
121
0.0
131
0.0
112
0.0
122
1.0
132
0.0
 79
     0
146
0.0
  0
ENDBLK
  5
25
330
23
100
AcDbEntity
  8
0
100
AcDbBlockEnd
  0
BLOCK
  5
151
330
14F
100
AcDbEntity
  8
0
100
AcDbBlockBegin
  2
*Paper_Space1
 70
     0
 10
0.0
 20
0.0
 30
0.0
  3
*Paper_Space1
  1

  0
LINE
  5
161
330
14F
100
AcDbEntity
  8
0
  6
Continuous
 62
     7
370
    25
100
AcDbLine
 10
450.0
 20
260.0
 30
0.0
 11
450.0
 21
-250.0
 31
0.0
  0
LINE
  5
162
330
14F
100
AcDbEntity
  8
0
  6
Continuous
 62
     7
370
    25
100
AcDbLine
 10
-450.0
 20
260.0
 30
0.0
 11
450.0
 21
260.0
 31
0.0
  0
LINE
  5
163
330
14F
100
AcDbEntity
  8
0
  6
Continuous
 62
     7
370
    25
100
AcDbLine
 10
-450.0
 20
-250.0
 30
0.0
 11
-450.0
 21
260.0
 31
0.0
  0
LINE
  5
164
330
14F
100
AcDbEntity
  8
0
  6
Continuous
 62
     7
370
    25
100
AcDbLine
 10
410.0
 20
-290.0
 30
0.0
 11
-410.0
 21
-290.0
 31
0.0
  0
LINE
  5
165
330
14F
100
AcDbEntity
  8
0
  6
Continuous
 62
     7
370
    25
100
AcDbLine
 10
410.0
 20
-290.0
 30
0.0
 11
450.0
 21
-250.0
 31
0.0
  0
LINE
  5
166
330
14F
100
AcDbEntity
  8
0
  6
Continuous
 62
     7
370
    25
100
AcDbLine
 10
-450.0
 20
-250.0
 30
0.0
 11
-410.0
 21
-290.0
 31
0.0
  0
LINE
  5
167
330
14F
100
AcDbEntity
  8
0
  6
Continuous
 62
     7
370
    25
100
AcDbLine
 10
-175.0
 20
135.0
 30
0.0
 11
175.0
 21
135.0
 31
0.0
  0
LINE
  5
168
330
14F
100
AcDbEntity
  8
0
  6
Continuous
 62
     7
370
    25
100
AcDbLine
 10
235.0
 20
75.0
 30
0.0
 11
235.0
 21
-145.0
 31
0.0
  0
LINE
  5
169
330
14F
100
AcDbEntity
  8
0
  6
Continuous
 62
     7
370
    25
100
AcDbLine
 10
175.0
 20
-205.0
 30
0.0
 11
-175.0
 21
-205.0
 31
0.0
  0
LINE
  5
16A
330
14F
100
AcDbEntity
  8
0
  6
Continuous
 62
     7
370
    25
100
AcDbLine
 10
-235.0
 20
-145.0
 30
0.0
 11
-235.0
 21
75.0
 31
0.0
  0
ARC
  5
16B
330
14F
100
AcDbEntity
  8
0
  6
Continuous
 62
     7
370
    25
100
AcDbCircle
 10
-175.0
 20
75.0
 30
0.0
 40
60.00000000000004
100
AcDbArc
 50
90.0
 51
180.0
  0
ARC
  5
16C
330
14F
100
AcDbEntity
  8
0
  6
Continuous
 62
     7
370
    25
100
AcDbCircle
 10
175.0
 20
75.0
 30
0.0
 40
60.00000000000011
100
AcDbArc
 50
0.0
 51
90.0
  0
ARC
  5
16D
330
14F
100
AcDbEntity
  8
0
  6
Continuous
 62
     7
370
    25
100
AcDbCircle
 10
175.0
 20
-145.0
 30
0.0
 40
60.00000000000011
100
AcDbArc
 50
270.0
 51
0.0
  0
ARC
  5
16E
330
14F
100
AcDbEntity
  8
0
  6
Continuous
 62
     7
370
    25
100
AcDbCircle
 10
-175.0
 20
-145.0
 30
0.0
 40
60.00000000000011
100
AcDbArc
 50
180.0
 51
270.0
  0
VIEWPORT
  5
277
330
14F
100
AcDbEntity
  8
0
100
AcDbViewport
 10
0.0
 20
0.0
 30
0.0
 40
205.6
 41
156.0
 68
     1
 69
     1
 12
0.0
 22
-32.5
 13
0.0
 23
0.0
 14
10.0
 24
10.0
 15
10.0
 25
10.0
 16
0.0
 26
0.0
 36
1.0
 17
0.0
 27
0.0
 37
0.0
 42
50.0
 43
0.0
 44
0.0
 45
696.5369649805
 50
0.0
 51
0.0
 72
   100
 90
   557152
  1

281
     0
 71
     1
 74
     0
110
0.0
120
0.0
130
0.0
111
1.0
121
0.0
131
0.0
112
0.0
122
1.0
132
0.0
 79
     0
146
0.0
  0
ENDBLK
  5
152
330
14F
100
AcDbEntity
  8
0
100
AcDbBlockEnd
  0
BLOCK
  5
171
330
16F
100
AcDbEntity
  8
0
100
AcDbBlockBegin
  2
*Paper_Space2
 70
     0
 10
0.0
 20
0.0
 30
0.0
  3
*Paper_Space2
  1

  0
LINE
  5
190
330
16F
100
AcDbEntity
  8
0
  6
Continuous
 62
     7
370
    25
100
AcDbLine
 10
-449.0
 20
65.0
 30
0.0
 11
-449.0
 21
25.0
 31
0.0
  0
LINE
  5
191
330
16F
100
AcDbEntity
  8
0
  6
Continuous
 62
     7
370
    25
100
AcDbLine
 10
450.0
 20
64.0
 30
0.0
 11
-450.0
 21
64.0
 31
0.0
  0
LINE
  5
192
330
16F
100
AcDbEntity
  8
0
  6
Continuous
 62
     7
370
    25
100
AcDbLine
 10
449.0
 20
25.0
 30
0.0
 11
449.0
 21
65.0
 31
0.0
  0
LINE
  5
193
330
16F
100
AcDbEntity
  8
0
  6
Continuous
 62
     7
370
    25
100
AcDbLine
 10
-450.0
 20
26.0
 30
0.0
 11
450.0
 21
26.0
 31
0.0
  0
LINE
  5
194
330
16F
100
AcDbEntity
  8
0
  6
Continuous
 62
     7
370
    25
100
AcDbLine
 10
-450.0
 20
26.0
 30
0.0
 11
-450.0
 21
64.0
 31
0.0
  0
LINE
  5
195
330
16F
100
AcDbEntity
  8
0
  6
Continuous
 62
     7
370
    25
100
AcDbLine
 10
-449.0
 20
65.0
 30
0.0
 11
449.0
 21
65.0
 31
0.0
  0
LINE
  5
196
330
16F
100
AcDbEntity
  8
0
  6
Continuous
 62
     7
370
    25
100
AcDbLine
 10
450.0
 20
64.0
 30
0.0
 11
450.0
 21
26.0
 31
0.0
  0
LINE
  5
197
330
16F
100
AcDbEntity
  8
0
  6
Continuous
 62
     7
370
    25
100
AcDbLine
 10
-410.0
 20
25.0
 30
0.0
 11
-410.0
 21
0.0
 31
0.0
  0
LINE
  5
198
330
16F
100
AcDbEntity
  8
0
  6
Continuous
 62
     7
370
    25
100
AcDbLine
 10
-450.0
 20
0.0
 30
0.0
 11
450.0
 21
0.0
 31
0.0
  0
LINE
  5
199
330
16F
100
AcDbEntity
  8
0
  6
Continuous
 62
     7
370
    25
100
AcDbLine
 10
-450.0
 20
0.0
 30
0.0
 11
-450.0
 21
25.0
 31
0.0
  0
LINE
  5
19A
330
16F
100
AcDbEntity
  8
0
  6
Continuous
 62
     7
370
    25
100
AcDbLine
 10
-450.0
 20
25.0
 30
0.0
 11
450.0
 21
25.0
 31
0.0
  0
LINE
  5
19B
330
16F
100
AcDbEntity
  8
0
  6
Continuous
 62
     7
370
    25
100
AcDbLine
 10
410.0
 20
0.0
 30
0.0
 11
410.0
 21
25.0
 31
0.0
  0
LINE
  5
19C
330
16F
100
AcDbEntity
  8
0
  6
Continuous
 62
     7
370
    25
100
AcDbLine
 10
450.0
 20
25.0
 30
0.0
 11
450.0
 21
0.0
 31
0.0
  0
ARC
  5
19D
330
16F
100
AcDbEntity
  8
0
  6
Continuous
 62
     7
370
    25
100
AcDbCircle
 10
-449.0
 20
64.0
 30
0.0
 40
0.9999999999999432
100
AcDbArc
 50
90.0
 51
180.0
  0
ARC
  5
19E
330
16F
100
AcDbEntity
  8
0
  6
Continuous
 62
     7
370
    25
100
AcDbCircle
 10
-449.0
 20
26.0
 30
0.0
 40
0.9999999999999574
100
AcDbArc
 50
180.0
 51
270.0
  0
ARC
  5
19F
330
16F
100
AcDbEntity
  8
0
  6
Continuous
 62
     7
370
    25
100
AcDbCircle
 10
449.0
 20
26.0
 30
0.0
 40
0.9999999999999574
100
AcDbArc
 50
270.0
 51
0.0
  0
ARC
  5
1A0
330
16F
100
AcDbEntity
  8
0
  6
Continuous
 62
     7
370
    25
100
AcDbCircle
 10
449.0
 20
64.0
 30
0.0
 40
0.9999999999999432
100
AcDbArc
 50
360.0
 51
90.0
  0
VIEWPORT
  5
279
330
16F
100
AcDbEntity
  8
0
100
AcDbViewport
 10
0.0
 20
0.0
 30
0.0
 40
205.6
 41
156.0
 68
     1
 69
     1
 12
0.0
 22
-32.5
 13
0.0
 23
0.0
 14
10.0
 24
10.0
 15
10.0
 25
10.0
 16
0.0
 26
0.0
 36
1.0
 17
0.0
 27
0.0
 37
0.0
 42
50.0
 43
0.0
 44
0.0
 45
696.5369649805
 50
0.0
 51
0.0
 72
   100
 90
   557152
  1

281
     0
 71
     1
 74
     0
110
0.0
120
0.0
130
0.0
111
1.0
121
0.0
131
0.0
112
0.0
122
1.0
132
0.0
 79
     0
146
0.0
  0
ENDBLK
  5
172
330
16F
100
AcDbEntity
  8
0
100
AcDbBlockEnd
  0
BLOCK
  5
1A3
330
1A1
100
AcDbEntity
  8
0
100
AcDbBlockBegin
  2
*Paper_Space3
 70
     0
 10
0.0
 20
0.0
 30
0.0
  3
*Paper_Space3
  1

  0
SPLINE
  5
1B1
330
1A1
100
AcDbEntity
  8
0
  6
Continuous
 62
     7
370
    25
100
AcDbSpline
210
0.0
220
0.0
230
1.0
 70
     8
 71
     3
 72
     9
 73
     5
 74
     0
 42
0.000000001
 43
0.00000001
 40
0.0
 40
0.0
 40
0.0
 40
0.0
 40
0.5553922894575053
 40
1.0
 40
1.0
 40
1.0
 40
1.0
 10
235.2121282793908
 20
-32.46130507711531
 30
0.0
 10
235.031851626629
 20
-32.9362541638728
 30
0.0
 10
234.7072582604916
 20
-33.79141383348475
 30
0.0
 10
234.2196482639697
 20
-34.62523784145975
 30
0.0
 10
234.0028530997785
 20
-34.9959624246409
 30
0.0
  0
SPLINE
  5
1B2
330
1A1
100
AcDbEntity
  8
0
  6
Continuous
 62
     7
370
    25
100
AcDbSpline
210
0.0
220
0.0
230
1.0
 70
     8
 71
     3
 72
     9
 73
     5
 74
     0
 42
0.000000001
 43
0.00000001
 40
0.0
 40
0.0
 40
0.0
 40
0.0
 40
0.7552036472820914
 40
1.0
 40
1.0
 40
1.0
 40
1.0
 10
-283.6670377175822
 20
18.35323077689995
 30
0.0
 10
-284.0025787375191
 20
18.96803746186637
 30
0.0
 10
-284.4468840863406
 20
19.7821313651189
 30
0.0
 10
-284.733254036672
 20
20.61409551360397
 30
0.0
 10
-284.8033563560411
 20
20.81775730274519
 30
0.0
  0
LWPOLYLINE
  5
1CB
330
1A1
100
AcDbEntity
  8
0
  6
Continuous
 62
     7
370
    25
100
AcDbPolyline
 90
       22
 70
   128
 43
0.0
 10
67.4680374315
 20
-136.9141248849
 10
63.882071461
 20
-138.8349286181
 10
60.0574838723
 20
-140.5956600802
 10
56.0156633108
 20
-142.1864725466
 10
51.7792132764
 20
-143.5984695486
 10
47.3718257163
 20
-144.8237546264
 10
42.8181485295
 20
-145.8554754886
 10
38.1436477259
 20
-146.6878623339
 10
33.3744650103
 20
-147.3162601171
 10
28.5372715868
 20
-147.7371545832
 10
23.6591190033
 20
-147.9481919194
 10
18.7672878679
 20
-147.9481919194
 10
13.8891352844
 20
-147.7371545832
 10
9.0519418609
 20
-147.3162601171
 10
4.2827591453
 20
-146.6878623339
 10
-0.3917416583
 20
-145.8554754886
 10
-4.9454188451
 20
-144.8237546264
 10
-9.3528064053
 20
-143.5984695486
 10
-13.5892564396
 20
-142.1864725466
 10
-17.6310770012
 20
-140.5956600802
 10
-21.4556645898
 20
-138.8349286181
 10
-25.0416305603
 20
-136.9141248849
  0
LWPOLYLINE
  5
1CD
330
1A1
100
AcDbEntity
  8
0
  6
Continuous
 62
     7
370
    25
100
AcDbPolyline
 90
       22
 70
   128
 43
0.0
 10
223.0315292926
 20
6.2954619964
 10
226.3588194687
 20
4.2253279057
 10
229.4088262941
 20
2.017440487
 10
232.1644928934
 20
-0.3158528577
 10
234.6104084611
 20
-2.7615034054
 10
236.7328944453
 20
-5.3058340862
 10
238.5200810434
 20
-7.934615971
 10
239.9619735829
 20
-10.633147845
 10
241.0505084159
 20
-13.3863384235
 10
241.7795980141
 20
-16.1787907478
 10
242.1451650127
 20
-18.9948882919
 10
242.1451650127
 20
-21.818882296
 10
241.7795980141
 20
-24.6349798402
 10
241.0505084159
 20
-27.4274321645
 10
239.9619735829
 20
-30.180622743
 10
238.5200810434
 20
-32.879154617
 10
236.7328944453
 20
-35.5079365018
 10
234.6104084611
 20
-38.0522671826
 10
232.1644928934
 20
-40.4979177303
 10
229.4088262941
 20
-42.8312110749
 10
226.3588194687
 20
-45.0390984937
 10
223.0315292926
 20
-47.1092325844
  0
LWPOLYLINE
  5
1CF
330
1A1
100
AcDbEntity
  8
0
  6
Continuous
 62
     7
370
    25
100
AcDbPolyline
 90
       22
 70
   128
 43
0.0
 10
-116.9655121146
 20
149.1668815654
 10
-113.379546144
 20
151.0876852986
 10
-109.5549585554
 20
152.8484167607
 10
-105.5131379939
 20
154.4392292271
 10
-101.2766879595
 20
155.8512262291
 10
-96.8693003994
 20
157.0765113069
 10
-92.3156232126
 20
158.1082321691
 10
-87.641122409
 20
158.9406190144
 10
-82.8719396933
 20
159.5690167976
 10
-78.0347462699
 20
159.9899112637
 10
-73.1565936864
 20
160.2009485999
 10
-68.2647625509
 20
160.2009485999
 10
-63.3866099674
 20
159.9899112637
 10
-58.549416544
 20
159.5690167976
 10
-53.7802338283
 20
158.9406190144
 10
-49.1057330247
 20
158.1082321691
 10
-44.5520558379
 20
157.0765113069
 10
-40.1446682778
 20
155.8512262291
 10
-35.9082182434
 20
154.4392292271
 10
-31.8663976819
 20
152.8484167607
 10
-28.0418100933
 20
151.0876852986
 10
-24.4558441227
 20
149.1668815654
  0
LWPOLYLINE
  5
1D1
330
1A1
100
AcDbEntity
  8
0
  6
Continuous
 62
     7
370
    25
100
AcDbPolyline
 90
       22
 70
   128
 43
0.0
 10
-272.5290039756
 20
5.9572946841
 10
-275.8562941518
 20
8.0274287748
 10
-278.9063009772
 20
10.2353161935
 10
-281.6619675764
 20
12.5686095382
 10
-284.1078831442
 20
15.0142600859
 10
-286.2303691284
 20
17.5585907667
 10
-288.0175557265
 20
20.1873726515
 10
-289.459448266
 20
22.8859045255
 10
-290.547983099
 20
25.639095104
 10
-291.2770726972
 20
28.4315474283
 10
-291.6426396958
 20
31.2476449724
 10
-291.6426396958
 20
34.0716389765
 10
-291.2770726972
 20
36.8877365207
 10
-290.547983099
 20
39.680188845
 10
-289.459448266
 20
42.4333794235
 10
-288.0175557265
 20
45.1319112975
 10
-286.2303691284
 20
47.7606931822
 10
-284.1078831442
 20
50.3050238631
 10
-281.6619675764
 20
52.7506744108
 10
-278.9063009772
 20
55.0839677554
 10
-275.8562941518
 20
57.2918551741
 10
-272.5290039756
 20
59.3619892649
  0
LWPOLYLINE
  5
1DB
330
1A1
100
AcDbEntity
  8
0
  6
Continuous
 62
     7
370
    25
100
AcDbPolyline
 90
       22
 70
   128
 43
0.0
 10
-24.5416305603
 20
-136.8646402955
 10
-20.994427738
 20
-138.7646807532
 10
-17.2111827211
 20
-140.5063792698
 10
-13.2130529505
 20
-142.0799955609
 10
-9.0223975896
 20
-143.4767293258
 10
-4.662652483
 20
-144.6887694627
 10
-0.1581990939
 20
-145.7093377516
 10
4.4657718471
 20
-146.5327267606
 10
9.183401219
 20
-147.1543317643
 10
13.9683061247
 20
-147.5706764954
 10
18.7937274349
 20
-147.7794325853
 10
23.6326794363
 20
-147.7794325853
 10
28.4581007465
 20
-147.5706764954
 10
33.2430056521
 20
-147.1543317643
 10
37.960635024
 20
-146.5327267606
 10
42.5846059651
 20
-145.7093377516
 10
47.0890593542
 20
-144.6887694627
 10
51.4488044608
 20
-143.4767293258
 10
55.6394598217
 20
-142.0799955609
 10
59.6375895923
 20
-140.5063792698
 10
63.4208346092
 20
-138.7646807532
 10
66.9680374315
 20
-136.8646402955
  0
LWPOLYLINE
  5
1E1
330
1A1
100
AcDbEntity
  8
0
  6
Continuous
 62
     7
370
    25
100
AcDbPolyline
 90
        8
 70
   128
 43
0.0
 10
222.5315292926
 20
-47.059747995
 10
225.8228525233
 20
-45.0119913934
 10
228.8398897479
 20
-42.8279705334
 10
231.5657684703
 20
-40.5198993455
 10
233.985244471
 20
-38.1006855
 10
236.0847870588
 20
-35.5838582222
 10
237.8526547399
 20
-32.983492631
 10
238.8807199119
 20
-31.1345821845
  0
LWPOLYLINE
  5
1E8
330
1A1
100
AcDbEntity
  8
0
  6
Continuous
 62
     7
370
    25
100
AcDbPolyline
 90
        9
 70
   128
 43
0.0
 10
235.1815907696
 20
-32.8867797179
 10
235.1188905205
 20
-32.7344971913
 10
233.8400862743
 20
-30.1169027704
 10
232.2094672473
 20
-27.5652990038
 10
230.2370867479
 20
-25.0954173769
 10
227.9351051579
 20
-22.7224855316
 10
225.3177149591
 20
-20.4611333815
 10
222.4010532326
 20
-18.3253029148
 10
219.2031021678
 20
-16.3281622365
  0
LWPOLYLINE
  5
1F4
330
1A1
100
AcDbEntity
  8
0
  6
Continuous
 62
     7
370
    25
100
AcDbPolyline
 90
        8
 70
   128
 43
0.0
 10
-269.1151652802
 20
4.3246559996
 10
-272.1212456666
 20
6.2111834549
 10
-275.0521452337
 20
8.3574400926
 10
-277.6823123632
 20
10.6298311545
 10
-279.9955311999
 20
13.014346594
 10
-281.9775399804
 20
15.4962850805
 10
-283.6161189617
 20
18.0603446378
 10
-283.9017354562
 20
18.581701511
  0
LWPOLYLINE
  5
1F8
330
1A1
100
AcDbEntity
  8
0
  6
Continuous
 62
     7
370
    25
100
AcDbPolyline
 90
        9
 70
   128
 43
0.0
 10
-268.7005768509
 20
36.738365032
 10
-271.8985279157
 20
34.7412243537
 10
-274.8151896422
 20
32.605393887
 10
-277.4325798409
 20
30.3440417369
 10
-279.734561431
 20
27.9711098915
 10
-281.7069419304
 20
25.5012282647
 10
-283.3375609574
 20
22.949624498
 10
-284.6163652036
 20
20.3320300772
 10
-284.6956644541
 20
20.1389132681
  0
LWPOLYLINE
  5
201
330
1A1
100
AcDbEntity
  8
0
  6
Continuous
 62
     7
370
    25
100
AcDbPolyline
 90
       22
 70
   128
 43
0.0
 10
-24.9558441227
 20
148.6390784427
 10
-28.5030469451
 20
150.5391189003
 10
-32.2862919619
 20
152.2808174169
 10
-36.2844217326
 20
153.854433708
 10
-40.4750770935
 20
155.2511674729
 10
-44.8348222001
 20
156.4632076098
 10
-49.3392755891
 20
157.4837758987
 10
-53.9632465302
 20
158.3071649077
 10
-58.6808759021
 20
158.9287699114
 10
-63.4657808077
 20
159.3451146425
 10
-68.2912021179
 20
159.5538707324
 10
-73.1301541194
 20
159.5538707324
 10
-77.9555754296
 20
159.3451146425
 10
-82.7404803352
 20
158.9287699114
 10
-87.4581097071
 20
158.3071649077
 10
-92.0820806482
 20
157.4837758987
 10
-96.5865340373
 20
156.4632076098
 10
-100.9462791438
 20
155.2511674729
 10
-105.1369345047
 20
153.854433708
 10
-109.1350642754
 20
152.2808174169
 10
-112.9183092923
 20
150.5391189003
 10
-116.4655121146
 20
148.6390784427
  0
LWPOLYLINE
  5
202
330
1A1
100
AcDbEntity
  8
0
  6
Continuous
 62
     7
370
    25
100
AcDbPolyline
 90
       21
 70
   128
 43
0.0
 10
-113.344191771
 20
143.2327930368
 10
-109.8677799478
 20
145.0879429113
 10
-106.1499515707
 20
146.7799152168
 10
-102.2136282881
 20
148.2982783814
 10
-98.0830788418
 20
149.6336711911
 10
-93.7837694429
 20
150.7778605054
 10
-89.3422067633
 20
151.7237920166
 10
-84.785774514
 20
152.4656337424
 10
-80.1425646151
 20
152.9988119818
 10
-75.4412039994
 20
153.3200395137
 10
-70.7106781187
 20
153.4273358635
 10
-65.9801522379
 20
153.3200395137
 10
-61.2787916222
 20
152.9988119818
 10
-56.6355817233
 20
152.4656337424
 10
-52.079149474
 20
151.7237920166
 10
-47.6375867945
 20
150.7778605054
 10
-43.3382773955
 20
149.6336711911
 10
-39.2077279493
 20
148.2982783814
 10
-35.2714046666
 20
146.7799152168
 10
-31.5535762895
 20
145.0879429113
 10
-28.0771644663
 20
143.2327930368
  0
LWPOLYLINE
  5
203
330
1A1
100
AcDbEntity
  8
0
  6
Continuous
 62
     7
370
    25
100
AcDbPolyline
 90
       21
 70
   128
 43
0.0
 10
-28.2842712475
 20
142.5358512917
 10
-31.7437952188
 20
144.3819891453
 10
-35.4435629811
 20
146.0657421203
 10
-39.3607642357
 20
147.5767293198
 10
-43.4712481343
 20
148.9056350052
 10
-47.7496721767
 20
150.044266031
 10
-52.1696584562
 20
150.9856023584
 10
-56.7039562873
 20
151.7238403359
 10
-61.3246102162
 20
152.2544284808
 10
-66.003132375
 20
152.5740955408
 10
-70.7106781187
 20
152.6808706622
 10
-75.4182238623
 20
152.5740955408
 10
-80.0967460211
 20
152.2544284808
 10
-84.71739995
 20
151.7238403359
 10
-89.2516977812
 20
150.9856023584
 10
-93.6716840606
 20
150.044266031
 10
-97.950108103
 20
148.9056350052
 10
-102.0605920016
 20
147.5767293198
 10
-105.9777932562
 20
146.0657421203
 10
-109.6775610185
 20
144.3819891453
 10
-113.1370849898
 20
142.5358512917
  0
LWPOLYLINE
  5
204
330
1A1
100
AcDbEntity
  8
0
  6
Continuous
 62
     7
370
    25
100
AcDbPolyline
 90
       21
 70
   128
 43
0.0
 10
-28.2842712475
 20
126.5432573325
 10
-31.7437952188
 20
128.3893951861
 10
-35.4435629811
 20
130.0731481611
 10
-39.3607642357
 20
131.5841353606
 10
-43.4712481343
 20
132.913041046
 10
-47.7496721767
 20
134.0516720718
 10
-52.1696584562
 20
134.9930083992
 10
-56.7039562873
 20
135.7312463767
 10
-61.3246102162
 20
136.2618345216
 10
-66.003132375
 20
136.5815015816
 10
-70.7106781187
 20
136.688276703
 10
-75.4182238623
 20
136.5815015816
 10
-80.0967460211
 20
136.2618345216
 10
-84.71739995
 20
135.7312463767
 10
-89.2516977812
 20
134.9930083992
 10
-93.6716840606
 20
134.0516720718
 10
-97.950108103
 20
132.913041046
 10
-102.0605920016
 20
131.5841353606
 10
-105.9777932562
 20
130.0731481611
 10
-109.6775610185
 20
128.3893951861
 10
-113.1370849898
 20
126.5432573325
  0
LWPOLYLINE
  5
211
330
1A1
100
AcDbEntity
  8
0
  6
Continuous
 62
     8
370
    25
100
AcDbPolyline
 90
       16
 70
   128
 43
0.0
 10
238.8807199119
 20
-31.1345821845
 10
239.278960881
 20
-30.3141310257
 10
240.3557289998
 20
-27.5907015591
 10
241.076937372
 20
-24.8284347536
 10
241.4385527079
 20
-22.0427783256
 10
241.4385527079
 20
-19.2493107958
 10
241.076937372
 20
-16.4636543678
 10
240.3557289998
 20
-13.7013875622
 10
239.278960881
 20
-10.9779580957
 10
237.8526547399
 20
-8.3085964904
 10
236.0847870588
 20
-5.7082308992
 10
233.985244471
 20
-3.1914036213
 10
231.5657684703
 20
-0.7721897759
 10
228.8398897479
 20
1.535881412
 10
225.8228525233
 20
3.7199022721
 10
222.5315292926
 20
5.7676588737
  0
LWPOLYLINE
  5
212
330
1A1
100
AcDbEntity
  8
0
  6
Continuous
 62
     8
370
    25
100
AcDbPolyline
 90
       15
 70
   128
 43
0.0
 10
219.410208949
 20
0.3613734678
 10
222.6237709835
 20
-1.6455163599
 10
225.5546705507
 20
-3.7917729976
 10
228.1848376801
 20
-6.0641640595
 10
230.4980565168
 20
-8.448679499
 10
232.4800652974
 20
-10.9306179854
 10
234.1186442787
 20
-13.4946775428
 10
235.4036910764
 20
-16.1250498913
 10
236.3272829496
 20
-18.8055179106
 10
236.8837256474
 20
-21.5195556241
 10
237.0695885155
 20
-24.2504300867
 10
236.8837256474
 20
-26.9813045494
 10
236.3272829496
 20
-29.6953422629
 10
235.4036910764
 20
-32.3758102822
 10
234.2395673398
 20
-34.7889166354
  0
LWPOLYLINE
  5
213
330
1A1
100
AcDbEntity
  8
0
  6
Continuous
 62
     8
370
    25
100
AcDbPolyline
 90
        9
 70
   128
 43
0.0
 10
235.2900418247
 20
-17.1651293464
 10
235.1188905205
 20
-16.7419032321
 10
233.8400862743
 20
-14.1243088112
 10
232.2094672473
 20
-11.5727050445
 10
230.2370867479
 20
-9.1028234177
 10
227.9351051579
 20
-6.7298915724
 10
225.3177149591
 20
-4.4685394223
 10
222.4010532326
 20
-2.3327089556
 10
219.2031021678
 20
-0.3355682773
  0
LWPOLYLINE
  5
214
330
1A1
100
AcDbEntity
  8
0
  6
Continuous
 62
     8
370
    25
100
AcDbPolyline
 90
       16
 70
   128
 43
0.0
 10
-272.0290039756
 20
58.8341861422
 10
-275.3203272064
 20
56.7864295406
 10
-278.337364431
 20
54.6024086805
 10
-281.0632431534
 20
52.2943374926
 10
-283.4827191541
 20
49.8751236471
 10
-285.5822617419
 20
47.3582963693
 10
-287.3501294229
 20
44.7579307781
 10
-288.7764355641
 20
42.0885691728
 10
-289.8532036828
 20
39.3651397062
 10
-290.574412055
 20
36.6028729007
 10
-290.936027391
 20
33.8172164727
 10
-290.936027391
 20
31.0237489429
 10
-290.574412055
 20
28.2380925149
 10
-289.8532036828
 20
25.4758257094
 10
-288.7764355641
 20
22.7523962428
 10
-288.2722752681
 20
21.7251530396
  0
LWPOLYLINE
  5
215
330
1A1
100
AcDbEntity
  8
0
  6
Continuous
 62
     8
370
    25
100
AcDbPolyline
 90
       15
 70
   128
 43
0.0
 10
-283.9017354562
 20
18.581701511
 10
-284.9011657594
 20
20.6907169863
 10
-285.8247576327
 20
23.3711850056
 10
-286.3812003305
 20
26.0852227191
 10
-286.5670631985
 20
28.8160971817
 10
-286.3812003305
 20
31.5469716444
 10
-285.8247576327
 20
34.2610093579
 10
-284.9011657594
 20
36.9414773772
 10
-283.6161189617
 20
39.5718497257
 10
-281.9775399804
 20
42.135909283
 10
-279.9955311999
 20
44.6178477695
 10
-277.6823123632
 20
47.002363209
 10
-275.0521452337
 20
49.2747542709
 10
-272.1212456666
 20
51.4210109086
 10
-268.9076836321
 20
53.4279007363
  0
LWPOLYLINE
  5
216
330
1A1
100
AcDbEntity
  8
0
  6
Continuous
 62
     8
370
    25
100
AcDbPolyline
 90
        9
 70
   128
 43
0.0
 10
-268.7005768509
 20
52.7309589912
 10
-271.8985279157
 20
50.7338183129
 10
-274.8151896422
 20
48.5979878462
 10
-277.4325798409
 20
46.3366356961
 10
-279.734561431
 20
43.9637038507
 10
-281.7069419304
 20
41.4938222239
 10
-283.3375609574
 20
38.9422184572
 10
-284.6163652036
 20
36.3246240364
 10
-284.7005538997
 20
36.1194364102
  0
LINE
  5
217
330
1A1
100
AcDbEntity
  8
0
  6
Continuous
 62
     7
370
    25
100
AcDbLine
 10
501.6316010801
 20
-56.3287095141
 30
0.0
 11
501.6316010801
 21
-25.3001586625
 31
0.0
  0
LINE
  5
218
330
1A1
100
AcDbEntity
  8
0
  6
Continuous
 62
     7
370
    25
100
AcDbLine
 10
501.1315604464
 20
-24.4341098001
 30
0.0
 11
-133.8503290591
 21
342.1331324083
 31
0.0
  0
LINE
  5
219
330
1A1
100
AcDbEntity
  8
0
  6
Continuous
 62
     7
370
    25
100
AcDbLine
 10
494.0604926345
 20
-61.2767989356
 30
0.0
 11
501.1315604464
 21
-57.1947583765
 31
0.0
  0
LINE
  5
21A
330
1A1
100
AcDbEntity
  8
0
  6
Continuous
 62
     7
370
    25
100
AcDbLine
 10
-141.9213156036
 20
305.2904432728
 30
0.0
 11
493.0605739019
 21
-61.2767989356
 31
0.0
  0
LINE
  5
21B
330
1A1
100
AcDbEntity
  8
0
  6
Continuous
 62
     7
370
    25
100
AcDbLine
 10
-142.4213562373
 20
337.1850429868
 30
0.0
 11
-142.4213562373
 21
306.1564921352
 31
0.0
  0
LINE
  5
21C
330
1A1
100
AcDbEntity
  8
0
  6
Continuous
 62
     7
370
    25
100
AcDbLine
 10
-134.8502477918
 20
342.1331324083
 30
0.0
 11
-141.9213156036
 21
338.0510918492
 31
0.0
  0
LINE
  5
21D
330
1A1
100
AcDbEntity
  8
0
  6
Continuous
 62
     7
370
    25
100
AcDbLine
 10
494.2676400494
 20
-29.7904032775
 30
0.0
 11
494.2676400494
 21
-60.8189541292
 31
0.0
  0
LINE
  5
21E
330
1A1
100
AcDbEntity
  8
0
  6
Continuous
 62
     7
370
    25
100
AcDbLine
 10
492.853426487
 20
-60.8189541292
 30
0.0
 11
492.853426487
 21
-29.7904032775
 31
0.0
  0
LINE
  5
21F
330
1A1
100
AcDbEntity
  8
0
  6
Continuous
 62
     7
370
    25
100
AcDbLine
 10
492.853426487
 20
-29.7904032775
 30
0.0
 11
-142.1284630185
 21
336.7768389309
 31
0.0
  0
LINE
  5
220
330
1A1
100
AcDbEntity
  8
0
  6
Continuous
 62
     7
370
    25
100
AcDbLine
 10
-141.4213562373
 20
338.0015837987
 30
0.0
 11
493.5605332682
 21
-28.5656584097
 31
0.0
  0
LINE
  5
221
330
1A1
100
AcDbEntity
  8
0
  6
Continuous
 62
     7
370
    25
100
AcDbLine
 10
501.3387078613
 20
-25.7083627184
 30
0.0
 11
494.2676400494
 21
-29.7904032775
 31
0.0
  0
LINE
  5
222
330
1A1
100
AcDbEntity
  8
0
  6
Continuous
 62
     7
370
    25
100
AcDbLine
 10
493.5605332682
 20
-28.5656584097
 30
0.0
 11
500.6316010801
 21
-24.4836178506
 31
0.0
  0
LINE
  5
223
330
1A1
100
AcDbEntity
  8
0
  6
Continuous
 62
     7
370
    25
100
AcDbLine
 10
501.3387078613
 20
-56.73691357
 30
0.0
 11
501.3387078613
 21
-25.7083627184
 31
0.0
  0
LINE
  5
224
330
1A1
100
AcDbEntity
  8
0
  6
Continuous
 62
     7
370
    25
100
AcDbLine
 10
494.2676400494
 20
-60.8189541292
 30
0.0
 11
501.3387078613
 21
-56.73691357
 31
0.0
  0
LINE
  5
225
330
1A1
100
AcDbEntity
  8
0
  6
Continuous
 62
     7
370
    25
100
AcDbLine
 10
-142.1284630185
 20
336.7768389309
 30
0.0
 11
-142.1284630185
 21
305.7482880792
 31
0.0
  0
LINE
  5
226
330
1A1
100
AcDbEntity
  8
0
  6
Continuous
 62
     7
370
    25
100
AcDbLine
 10
-142.1284630185
 20
305.7482880792
 30
0.0
 11
492.853426487
 21
-60.8189541292
 31
0.0
  0
LINE
  5
227
330
1A1
100
AcDbEntity
  8
0
  6
Continuous
 62
     7
370
    25
100
AcDbLine
 10
-134.3502884254
 20
342.0836243578
 30
0.0
 11
-141.4213562373
 21
338.0015837987
 31
0.0
  0
LINE
  5
228
330
1A1
100
AcDbEntity
  8
0
  6
Continuous
 62
     7
370
    25
100
AcDbLine
 10
500.6316010801
 20
-24.4836178506
 30
0.0
 11
-134.3502884254
 21
342.0836243578
 31
0.0
  0
LINE
  5
229
330
1A1
100
AcDbEntity
  8
0
  6
Continuous
 62
     7
370
    25
100
AcDbLine
 10
-494.9747468306
 20
102.0543314794
 30
0.0
 11
-494.9747468306
 21
48.9844867094
 31
0.0
  0
LINE
  5
22A
330
1A1
100
AcDbEntity
  8
0
  6
Continuous
 62
     7
370
    25
100
AcDbLine
 10
-142.2873476363
 20
305.6564332417
 30
0.0
 11
-494.9747468306
 21
102.0543314794
 31
0.0
  0
LINE
  5
22B
330
1A1
100
AcDbEntity
  8
0
  6
Continuous
 62
     7
370
    25
100
AcDbLine
 10
502.0458146424
 20
-57.145250326
 30
0.0
 11
501.497592479
 21
-56.8287684076
 31
0.0
  0
LINE
  5
22C
330
1A1
100
AcDbEntity
  8
0
  6
Continuous
 62
     7
370
    25
100
AcDbLine
 10
141.4213562373
 20
-265.3293188408
 30
0.0
 11
502.0458146424
 21
-57.145250326
 31
0.0
  0
LINE
  5
22D
330
1A1
100
AcDbEntity
  8
0
  6
Continuous
 62
     7
370
    25
100
AcDbLine
 10
84.8528137424
 20
-265.3293188408
 30
0.0
 11
141.4213562373
 21
-265.3293188408
 31
0.0
  0
LINE
  5
22E
330
1A1
100
AcDbEntity
  8
0
  6
Continuous
 62
     7
370
    25
100
AcDbLine
 10
-494.9747468306
 20
69.3980070065
 30
0.0
 11
84.8528137424
 21
-265.3293188408
 31
0.0
  0
LINE
  5
22F
330
1A1
100
AcDbEntity
  8
0
  6
Continuous
 62
     7
370
    25
100
AcDbLine
 10
223.0315292926
 20
-47.1092325844
 30
0.0
 11
67.4680374315
 21
-136.9141248849
 31
0.0
  0
LINE
  5
230
330
1A1
100
AcDbEntity
  8
0
  6
Continuous
 62
     7
370
    25
100
AcDbLine
 10
-24.4558441227
 20
149.1668815654
 30
0.0
 11
223.0315292926
 21
6.2954619964
 31
0.0
  0
LINE
  5
231
330
1A1
100
AcDbEntity
  8
0
  6
Continuous
 62
     7
370
    25
100
AcDbLine
 10
-272.5290039756
 20
59.3619892649
 30
0.0
 11
-116.9655121146
 21
149.1668815654
 31
0.0
  0
LINE
  5
232
330
1A1
100
AcDbEntity
  8
0
  6
Continuous
 62
     7
370
    25
100
AcDbLine
 10
-25.0416305603
 20
-136.9141248849
 30
0.0
 11
-272.5290039756
 21
5.9572946841
 31
0.0
  0
LINE
  5
233
330
1A1
100
AcDbEntity
  8
0
  6
Continuous
 62
     7
370
    25
100
AcDbLine
 10
141.4213562373
 20
-265.3293188408
 30
0.0
 11
141.4213562373
 21
-285.7428391379
 31
0.0
  0
LINE
  5
234
330
1A1
100
AcDbEntity
  8
0
  6
Continuous
 62
     7
370
    25
100
AcDbLine
 10
141.4213562373
 20
-285.7428391379
 30
0.0
 11
84.8528137424
 21
-285.7428391379
 31
0.0
  0
LINE
  5
235
330
1A1
100
AcDbEntity
  8
0
  6
Continuous
 62
     7
370
    25
100
AcDbLine
 10
84.8528137424
 20
-285.7428391379
 30
0.0
 11
84.8528137424
 21
-265.3293188408
 31
0.0
  0
LINE
  5
236
330
1A1
100
AcDbEntity
  8
0
  6
Continuous
 62
     7
370
    25
100
AcDbLine
 10
502.0458146424
 20
-57.145250326
 30
0.0
 11
502.0458146424
 21
-77.5587706232
 31
0.0
  0
LINE
  5
237
330
1A1
100
AcDbEntity
  8
0
  6
Continuous
 62
     7
370
    25
100
AcDbLine
 10
141.4213562373
 20
-285.7428391379
 30
0.0
 11
502.0458146424
 21
-77.5587706232
 31
0.0
  0
LINE
  5
238
330
1A1
100
AcDbEntity
  8
0
  6
Continuous
 62
     7
370
    25
100
AcDbLine
 10
-494.9747468306
 20
48.9844867094
 30
0.0
 11
84.8528137424
 21
-285.7428391379
 31
0.0
  0
LINE
  5
239
330
1A1
100
AcDbEntity
  8
0
  6
Continuous
 62
     7
370
    25
100
AcDbLine
 10
66.9680374315
 20
-136.8646402955
 30
0.0
 11
222.5315292926
 21
-47.059747995
 31
0.0
  0
LINE
  5
23A
330
1A1
100
AcDbEntity
  8
0
  6
Continuous
 62
     7
370
    25
100
AcDbLine
 10
-272.0290039756
 20
6.0067792734
 30
0.0
 11
-24.5416305603
 21
-136.8646402955
 31
0.0
  0
LINE
  5
23B
330
1A1
100
AcDbEntity
  8
0
  6
Continuous
 62
     7
370
    25
100
AcDbLine
 10
222.5315292926
 20
5.7676588737
 30
0.0
 11
219.410208949
 21
0.3613734678
 31
0.0
  0
LINE
  5
23C
330
1A1
100
AcDbEntity
  8
0
  6
Continuous
 62
     7
370
    25
100
AcDbLine
 10
219.2031021678
 20
-16.3281622365
 30
0.0
 11
219.2031021678
 21
-0.3355682773
 31
0.0
  0
LINE
  5
23D
330
1A1
100
AcDbEntity
  8
0
  6
Continuous
 62
     7
370
    25
100
AcDbLine
 10
222.5315292926
 20
5.7676588737
 30
0.0
 11
-24.9558441227
 21
148.6390784427
 31
0.0
  0
LINE
  5
23E
330
1A1
100
AcDbEntity
  8
0
  6
Continuous
 62
     7
370
    25
100
AcDbLine
 10
-28.0771644663
 20
143.2327930368
 30
0.0
 11
219.410208949
 21
0.3613734678
 31
0.0
  0
LINE
  5
23F
330
1A1
100
AcDbEntity
  8
0
  6
Continuous
 62
     7
370
    25
100
AcDbLine
 10
-24.9558441227
 20
148.6390784427
 30
0.0
 11
-28.0771644663
 21
143.2327930368
 31
0.0
  0
LINE
  5
240
330
1A1
100
AcDbEntity
  8
0
  6
Continuous
 62
     7
370
    25
100
AcDbLine
 10
219.2031021678
 20
-0.3355682773
 30
0.0
 11
-28.2842712475
 21
142.5358512917
 31
0.0
  0
LINE
  5
241
330
1A1
100
AcDbEntity
  8
0
  6
Continuous
 62
     7
370
    25
100
AcDbLine
 10
-28.2842712475
 20
126.5432573325
 30
0.0
 11
-28.2842712475
 21
142.5358512917
 31
0.0
  0
LINE
  5
242
330
1A1
100
AcDbEntity
  8
0
  6
Continuous
 62
     7
370
    25
100
AcDbLine
 10
219.2031021678
 20
-16.3281622365
 30
0.0
 11
-28.2842712475
 21
126.5432573325
 31
0.0
  0
LINE
  5
243
330
1A1
100
AcDbEntity
  8
0
  6
Continuous
 62
     7
370
    25
100
AcDbLine
 10
-268.9076836321
 20
53.4279007363
 30
0.0
 11
-272.0290039756
 21
58.8341861422
 31
0.0
  0
LINE
  5
244
330
1A1
100
AcDbEntity
  8
0
  6
Continuous
 62
     7
370
    25
100
AcDbLine
 10
-268.7005768509
 20
36.738365032
 30
0.0
 11
-268.7005768509
 21
52.7309589912
 31
0.0
  0
LINE
  5
245
330
1A1
100
AcDbEntity
  8
0
  6
Continuous
 62
     7
370
    25
100
AcDbLine
 10
-116.4655121146
 20
148.6390784427
 30
0.0
 11
-272.0290039756
 21
58.8341861422
 31
0.0
  0
LINE
  5
246
330
1A1
100
AcDbEntity
  8
0
  6
Continuous
 62
     7
370
    25
100
AcDbLine
 10
-116.4655121146
 20
148.6390784427
 30
0.0
 11
-113.344191771
 21
143.2327930368
 31
0.0
  0
LINE
  5
247
330
1A1
100
AcDbEntity
  8
0
  6
Continuous
 62
     7
370
    25
100
AcDbLine
 10
-268.9076836321
 20
53.4279007363
 30
0.0
 11
-113.344191771
 21
143.2327930368
 31
0.0
  0
LINE
  5
248
330
1A1
100
AcDbEntity
  8
0
  6
Continuous
 62
     7
370
    25
100
AcDbLine
 10
-113.1370849898
 20
142.5358512917
 30
0.0
 11
-268.7005768509
 21
52.7309589912
 31
0.0
  0
LINE
  5
249
330
1A1
100
AcDbEntity
  8
0
  6
Continuous
 62
     7
370
    25
100
AcDbLine
 10
-113.1370849898
 20
126.5432573325
 30
0.0
 11
-113.1370849898
 21
142.5358512917
 31
0.0
  0
LINE
  5
24A
330
1A1
100
AcDbEntity
  8
0
  6
Continuous
 62
     7
370
    25
100
AcDbLine
 10
-113.1370849898
 20
126.5432573325
 30
0.0
 11
-268.7005768509
 21
36.738365032
 31
0.0
  0
ARC
  5
24B
330
1A1
100
AcDbEntity
  8
0
  6
Continuous
 62
     7
370
    25
100
AcDbCircle
 10
500.6316010801
 20
-25.3001586625
 30
0.0
 40
0.999999999999934
100
AcDbArc
 50
0.0
 51
60.0026882664
  0
ARC
  5
24C
330
1A1
100
AcDbEntity
  8
0
  6
Continuous
 62
     7
370
    25
100
AcDbCircle
 10
493.5605332682
 20
-60.4107500732
 30
0.0
 40
1.000000000000214
100
AcDbArc
 50
240.0026882664
 51
299.9973117336
  0
ARC
  5
24D
330
1A1
100
AcDbEntity
  8
0
  6
Continuous
 62
     7
370
    25
100
AcDbCircle
 10
500.6316010801
 20
-56.3287095141
 30
0.0
 40
0.9999999999995496
100
AcDbArc
 50
299.9973117336
 51
0.0
  0
ARC
  5
24E
330
1A1
100
AcDbEntity
  8
0
  6
Continuous
 62
     7
370
    25
100
AcDbCircle
 10
-141.4213562373
 20
337.1850429868
 30
0.0
 40
0.9999999999997726
100
AcDbArc
 50
119.9973117336
 51
180.0
  0
ARC
  5
24F
330
1A1
100
AcDbEntity
  8
0
  6
Continuous
 62
     7
370
    25
100
AcDbCircle
 10
-134.3502884254
 20
341.2670835459
 30
0.0
 40
1.000000000000204
100
AcDbArc
 50
60.0026882664
 51
119.9973117336
  0
ARC
  5
250
330
1A1
100
AcDbEntity
  8
0
  6
Continuous
 62
     7
370
    25
100
AcDbCircle
 10
-141.4213562373
 20
306.1564921352
 30
0.0
 40
0.9999999999997456
100
AcDbArc
 50
180.0
 51
240.0026882664
  0
ARC
  5
251
330
1A1
100
AcDbEntity
  8
0
  6
Continuous
 62
     7
370
    25
100
AcDbCircle
 10
494.3886425884
 20
-29.8602641298
 30
0.0
 40
1.536804807572285
100
AcDbArc
 50
122.60547834
 51
177.3945215143
  0
ARC
  5
252
330
1A1
100
AcDbEntity
  8
0
  6
Continuous
 62
     7
370
    25
100
AcDbCircle
 10
492.732423948
 20
-29.8602641298
 30
0.0
 40
1.536804807571999
100
AcDbArc
 50
2.6054784857
 51
57.39452166
  0
ARC
  5
253
330
1A1
100
AcDbEntity
  8
0
  6
Continuous
 62
     7
370
    25
100
AcDbCircle
 10
493.5605332682
 20
-28.4256921925
 30
0.0
 40
1.537021907911513
100
AcDbArc
 50
242.6096722366
 51
297.3903277634
  0
ARC
  5
254
330
1A1
100
AcDbEntity
  8
0
  6
Continuous
 62
     7
370
    25
100
AcDbCircle
 10
493.5605332682
 20
-59.4542430442
 30
0.0
 40
1.53702190791162
100
AcDbArc
 50
242.6096722366
 51
297.3903277634
  0
ARC
  5
255
330
1A1
100
AcDbEntity
  8
0
  6
Continuous
 62
     7
370
    25
100
AcDbCircle
 10
-140.5932469171
 20
336.7069780786
 30
0.0
 40
1.53680480757203
100
AcDbArc
 50
122.60547834
 51
177.3945215143
  0
ARC
  5
256
330
1A1
100
AcDbEntity
  8
0
  6
Continuous
 62
     7
370
    25
100
AcDbCircle
 10
499.8034917599
 20
-25.7782235706
 30
0.0
 40
1.536804807572228
100
AcDbArc
 50
2.6054784857
 51
57.39452166
  0
ARC
  5
257
330
1A1
100
AcDbEntity
  8
0
  6
Continuous
 62
     7
370
    25
100
AcDbCircle
 10
-24.748716967
 20
-137.3229882232
 30
0.0
 40
0.5029588477822423
100
AcDbArc
 50
65.6860478386
 51
125.6181726599
  0
ARC
  5
258
330
1A1
100
AcDbEntity
  8
0
  6
Continuous
 62
     7
370
    25
100
AcDbCircle
 10
67.1751238382
 20
-137.3229882232
 30
0.0
 40
0.5029588477821479
100
AcDbArc
 50
54.3818273401
 51
114.3139521615
  0
ARC
  5
259
330
1A1
100
AcDbEntity
  8
0
  6
Continuous
 62
     7
370
    25
100
AcDbCircle
 10
222.7386156992
 20
-47.5180959227
 30
0.0
 40
0.5029588477822547
100
AcDbArc
 50
54.3818273401
 51
114.3139521614
  0
ARC
  5
25A
330
1A1
100
AcDbEntity
  8
0
  6
Continuous
 62
     7
370
    25
100
AcDbCircle
 10
-272.2360903823
 20
5.5484313458
 30
0.0
 40
0.5029588477820999
100
AcDbArc
 50
65.6860478385
 51
125.6181726599
  0
ARC
  5
25B
330
1A1
100
AcDbEntity
  8
0
  6
Continuous
 62
     7
370
    25
100
AcDbCircle
 10
223.7950357375
 20
5.0714425413
 30
0.0
 40
1.442624593547213
100
AcDbArc
 50
121.9546716495
 51
151.1443911208
  0
ARC
  5
25C
330
1A1
100
AcDbEntity
  8
0
  6
Continuous
 62
     7
370
    25
100
AcDbCircle
 10
201.3260778701
 20
-14.935424509
 30
0.0
 40
38.43772806352188
100
AcDbArc
 50
298.4164362886
 51
328.9015240896
  0
ARC
  5
25D
330
1A1
100
AcDbEntity
  8
0
  6
Continuous
 62
     7
370
    25
100
AcDbCircle
 10
216.106548771
 20
-24.8297458746
 30
0.0
 40
20.65799487516724
100
AcDbArc
 50
337.5800893283
 51
21.7787977302
  0
ARC
  5
25E
330
1A1
100
AcDbEntity
  8
0
  6
Continuous
 62
     7
370
    25
100
AcDbCircle
 10
220.6450673179
 20
-0.3848267033
 30
0.0
 40
1.44280625399935
100
AcDbArc
 50
148.8562722006
 51
178.043501357
  0
ARC
  5
25F
330
1A1
100
AcDbEntity
  8
0
  6
Continuous
 62
     7
370
    25
100
AcDbCircle
 10
-273.2925104206
 20
58.1379698098
 30
0.0
 40
1.442624593548089
100
AcDbArc
 50
28.8556088792
 51
58.0453283505
  0
ARC
  5
260
330
1A1
100
AcDbEntity
  8
0
  6
Continuous
 62
     7
370
    25
100
AcDbCircle
 10
-252.5935774372
 20
42.3432656372
 30
0.0
 40
41.20771828183557
100
AcDbArc
 50
210.022886729
 51
241.8588505574
  0
ARC
  5
261
330
1A1
100
AcDbEntity
  8
0
  6
Continuous
 62
     7
370
    25
100
AcDbCircle
 10
-26.8423060974
 20
142.4865928657
 30
0.0
 40
1.442806253998903
100
AcDbArc
 50
148.8562722006
 51
178.043501357
  0
ARC
  5
262
330
1A1
100
AcDbEntity
  8
0
  6
Continuous
 62
     7
370
    25
100
AcDbCircle
 10
-23.6923376777
 20
147.9428621103
 30
0.0
 40
1.44262459354755
100
AcDbArc
 50
121.9546716495
 51
151.1443911208
  0
ARC
  5
263
330
1A1
100
AcDbEntity
  8
0
  6
Continuous
 62
     7
370
    25
100
AcDbCircle
 10
-270.142542001
 20
52.6817005652
 30
0.0
 40
1.442806253998056
100
AcDbArc
 50
1.956498643
 51
31.1437277994
  0
ARC
  5
264
330
1A1
100
AcDbEntity
  8
0
  6
Continuous
 62
     7
370
    25
100
AcDbCircle
 10
-265.6040234541
 20
28.2406498792
 30
0.0
 40
20.65799487516716
100
AcDbArc
 50
157.5800893283
 51
201.7787977302
  0
ARC
  5
265
330
1A1
100
AcDbEntity
  8
0
  6
Continuous
 62
     7
370
    25
100
AcDbCircle
 10
-114.5790501399
 20
142.4865928657
 30
0.0
 40
1.44280625399979
100
AcDbArc
 50
1.956498643
 51
31.1437277994
  0
ARC
  5
266
330
1A1
100
AcDbEntity
  8
0
  6
Continuous
 62
     7
370
    25
100
AcDbCircle
 10
-117.7290185596
 20
147.9428621103
 30
0.0
 40
1.442624593546934
100
AcDbArc
 50
28.8556088792
 51
58.0453283505
  0
ARC
  5
267
330
1A1
100
AcDbEntity
  8
0
  6
Continuous
 62
     8
370
    25
100
AcDbCircle
 10
501.1311440176
 20
-25.2502522856
 30
0.0
 40
0.5029392784933626
100
AcDbArc
 50
294.3746582936
 51
354.3052007488
  0
ARC
  5
268
330
1A1
100
AcDbEntity
  8
0
  6
Continuous
 62
     8
370
    25
100
AcDbCircle
 10
500.9245211349
 20
-24.8924991797
 30
0.0
 40
0.5029772359017053
100
AcDbArc
 50
65.6928809539
 51
125.6175774752
  0
ARC
  5
269
330
1A1
100
AcDbEntity
  8
0
  6
Continuous
 62
     8
370
    25
100
AcDbCircle
 10
501.1311440176
 20
-56.2788031372
 30
0.0
 40
0.5029392784939629
100
AcDbArc
 50
294.3746582936
 51
354.3052007488
  0
ARC
  5
26A
330
1A1
100
AcDbEntity
  8
0
  6
Continuous
 62
     8
370
    25
100
AcDbCircle
 10
-134.0573683706
 20
341.6747430287
 30
0.0
 40
0.5029772359018363
100
AcDbArc
 50
65.6928809539
 51
125.6175774752
  0
ARC
  5
26B
330
1A1
100
AcDbEntity
  8
0
  6
Continuous
 62
     8
370
    25
100
AcDbCircle
 10
493.3434283894
 20
-60.8730408665
 30
0.0
 40
0.4929779299812032
100
AcDbArc
 50
173.7011524801
 51
234.9866671265
  0
ARC
  5
26C
330
1A1
100
AcDbEntity
  8
0
  6
Continuous
 62
     8
370
    25
100
AcDbCircle
 10
493.7776381469
 20
-60.8730408665
 30
0.0
 40
0.4929779301097094
100
AcDbArc
 50
305.0133328824
 51
6.298847511
  0
ARC
  5
26D
330
1A1
100
AcDbEntity
  8
0
  6
Continuous
 62
     8
370
    25
100
AcDbCircle
 10
500.8630223054
 20
-56.7974775986
 30
0.0
 40
0.4795255463989496
100
AcDbArc
 50
304.0563508304
 51
7.255829563
  0
ARC
  5
26E
330
1A1
100
AcDbEntity
  8
0
  6
Continuous
 62
     8
370
    25
100
AcDbCircle
 10
-141.6384611161
 20
305.6942013419
 30
0.0
 40
0.4929779300175937
100
AcDbArc
 50
173.7011524826
 51
234.986667124
  0
ARC
  5
26F
330
1A1
100
AcDbEntity
  8
0
  6
Continuous
 62
     8
370
    25
100
AcDbCircle
 10
-141.9208991748
 20
337.2349493637
 30
0.0
 40
0.5029392784938072
100
AcDbArc
 50
185.6947992512
 51
245.6253417064
  0
ARC
  5
270
330
1A1
100
AcDbEntity
  8
0
  6
Continuous
 62
     8
370
    25
100
AcDbCircle
 10
-141.7142762922
 20
337.5927024696
 30
0.0
 40
0.5029772359018271
100
AcDbArc
 50
54.3824225248
 51
114.3071190461
  0
ARC
  5
271
330
1A1
100
AcDbEntity
  8
0
  6
Continuous
 62
     8
370
    25
100
AcDbCircle
 10
-141.9208991748
 20
306.2063985121
 30
0.0
 40
0.5029392784937954
100
AcDbArc
 50
185.6947992512
 51
245.6253417064
  0
ARC
  5
272
330
1A1
100
AcDbEntity
  8
0
  6
Continuous
 62
     8
370
    25
100
AcDbCircle
 10
-134.6432084803
 20
341.6747430287
 30
0.0
 40
0.5029772359019288
100
AcDbArc
 50
54.3824225248
 51
114.3071190461
  0
VIEWPORT
  5
27B
330
1A1
100
AcDbEntity
  8
0
100
AcDbViewport
 10
0.0
 20
0.0
 30
0.0
 40
205.6
 41
156.0
 68
     1
 69
     1
 12
0.0
 22
-32.5
 13
0.0
 23
0.0
 14
10.0
 24
10.0
 15
10.0
 25
10.0
 16
0.0
 26
0.0
 36
1.0
 17
0.0
 27
0.0
 37
0.0
 42
50.0
 43
0.0
 44
0.0
 45
696.5369649805
 50
0.0
 51
0.0
 72
   100
 90
   557152
  1

281
     0
 71
     1
 74
     0
110
0.0
120
0.0
130
0.0
111
1.0
121
0.0
131
0.0
112
0.0
122
1.0
132
0.0
 79
     0
146
0.0
  0
ENDBLK
  5
1A4
330
1A1
100
AcDbEntity
  8
0
100
AcDbBlockEnd
  0
ENDSEC
  0
SECTION
  2
ENTITIES
  0
LINE
  5
8A
330
1F
100
AcDbEntity
  8
0
  6
Continuous
 62
     7
370
    25
100
AcDbLine
 10
-449.0
 20
-25.0
 30
0.0
 11
-449.0
 21
-65.0
 31
0.0
  0
LINE
  5
8B
330
1F
100
AcDbEntity
  8
0
  6
Continuous
 62
     7
370
    25
100
AcDbLine
 10
449.0
 20
-65.0
 30
0.0
 11
449.0
 21
-25.0
 31
0.0
  0
LINE
  5
8C
330
1F
100
AcDbEntity
  8
0
  6
Continuous
 62
     7
370
    25
100
AcDbLine
 10
450.0
 20
-26.0
 30
0.0
 11
-450.0
 21
-26.0
 31
0.0
  0
LINE
  5
8D
330
1F
100
AcDbEntity
  8
0
  6
Continuous
 62
     7
370
    25
100
AcDbLine
 10
450.0
 20
-26.0
 30
0.0
 11
450.0
 21
-64.0
 31
0.0
  0
LINE
  5
8E
330
1F
100
AcDbEntity
  8
0
  6
Continuous
 62
     7
370
    25
100
AcDbLine
 10
-450.0
 20
-64.0
 30
0.0
 11
450.0
 21
-64.0
 31
0.0
  0
LINE
  5
8F
330
1F
100
AcDbEntity
  8
0
  6
Continuous
 62
     7
370
    25
100
AcDbLine
 10
449.0
 20
-65.0
 30
0.0
 11
-449.0
 21
-65.0
 31
0.0
  0
LINE
  5
90
330
1F
100
AcDbEntity
  8
0
  6
Continuous
 62
     7
370
    25
100
AcDbLine
 10
-450.0
 20
-64.0
 30
0.0
 11
-450.0
 21
-26.0
 31
0.0
  0
LINE
  5
91
330
1F
100
AcDbEntity
  8
0
  6
Continuous
 62
     7
370
    25
100
AcDbLine
 10
450.0
 20
-25.0
 30
0.0
 11
450.0
 21
0.0
 31
0.0
  0
LINE
  5
92
330
1F
100
AcDbEntity
  8
0
  6
Continuous
 62
     7
370
    25
100
AcDbLine
 10
-450.0
 20
-25.0
 30
0.0
 11
-450.0
 21
0.0
 31
0.0
  0
LINE
  5
93
330
1F
100
AcDbEntity
  8
0
  6
Continuous
 62
     7
370
    25
100
AcDbLine
 10
450.0
 20
0.0
 30
0.0
 11
-450.0
 21
0.0
 31
0.0
  0
LINE
  5
94
330
1F
100
AcDbEntity
  8
0
  6
Continuous
 62
     7
370
    25
100
AcDbLine
 10
450.0
 20
-25.0
 30
0.0
 11
-450.0
 21
-25.0
 31
0.0
  0
ARC
  5
95
330
1F
100
AcDbEntity
  8
0
  6
Continuous
 62
     7
370
    25
100
AcDbCircle
 10
-449.0
 20
-64.0
 30
0.0
 40
0.9999999999999716
100
AcDbArc
 50
180.0
 51
270.0
  0
ARC
  5
96
330
1F
100
AcDbEntity
  8
0
  6
Continuous
 62
     7
370
    25
100
AcDbCircle
 10
449.0
 20
-64.0
 30
0.0
 40
0.9999999999999432
100
AcDbArc
 50
270.0
 51
0.0
  0
ARC
  5
97
330
1F
100
AcDbEntity
  8
0
  6
Continuous
 62
     7
370
    25
100
AcDbCircle
 10
449.0
 20
-26.0
 30
0.0
 40
0.9999999999999538
100
AcDbArc
 50
360.0
 51
90.0
  0
ARC
  5
98
330
1F
100
AcDbEntity
  8
0
  6
Continuous
 62
     7
370
    25
100
AcDbCircle
 10
-449.0
 20
-26.0
 30
0.0
 40
1.0
100
AcDbArc
 50
90.0
 51
180.0
  0
LINE
  5
EE
330
1B
100
AcDbEntity
 67
     1
  8
0
  6
Continuous
 62
     7
370
    25
100
AcDbLine
 10
450.0
 20
259.0
 30
0.0
 11
-450.0
 21
259.0
 31
0.0
  0
LINE
  5
EF
330
1B
100
AcDbEntity
 67
     1
  8
0
  6
Continuous
 62
     7
370
    25
100
AcDbLine
 10
-450.0
 20
249.0
 30
0.0
 11
450.0
 21
249.0
 31
0.0
  0
LINE
  5
F0
330
1B
100
AcDbEntity
 67
     1
  8
0
  6
Continuous
 62
     7
370
    25
100
AcDbLine
 10
-449.0
 20
260.0
 30
0.0
 11
-449.0
 21
248.0
 31
0.0
  0
LINE
  5
F1
330
1B
100
AcDbEntity
 67
     1
  8
0
  6
Continuous
 62
     7
370
    25
100
AcDbLine
 10
-450.0
 20
260.0
 30
0.0
 11
450.0
 21
260.0
 31
0.0
  0
LINE
  5
F2
330
1B
100
AcDbEntity
 67
     1
  8
0
  6
Continuous
 62
     7
370
    25
100
AcDbLine
 10
449.0
 20
248.0
 30
0.0
 11
449.0
 21
260.0
 31
0.0
  0
LINE
  5
F3
330
1B
100
AcDbEntity
 67
     1
  8
0
  6
Continuous
 62
     7
370
    25
100
AcDbLine
 10
-450.0
 20
260.0
 30
0.0
 11
-450.0
 21
-250.0
 31
0.0
  0
LINE
  5
F4
330
1B
100
AcDbEntity
 67
     1
  8
0
  6
Continuous
 62
     7
370
    25
100
AcDbLine
 10
450.0
 20
-250.0
 30
0.0
 11
450.0
 21
260.0
 31
0.0
  0
LINE
  5
F5
330
1B
100
AcDbEntity
 67
     1
  8
0
  6
Continuous
 62
     7
370
    25
100
AcDbLine
 10
449.0
 20
248.0
 30
0.0
 11
-449.0
 21
248.0
 31
0.0
  0
LINE
  5
F6
330
1B
100
AcDbEntity
 67
     1
  8
0
  6
Continuous
 62
     7
370
    25
100
AcDbLine
 10
-450.0
 20
-250.0
 30
0.0
 11
-410.0
 21
-290.0
 31
0.0
  0
LINE
  5
F7
330
1B
100
AcDbEntity
 67
     1
  8
0
  6
Continuous
 62
     7
370
    25
100
AcDbLine
 10
410.0
 20
-290.0
 30
0.0
 11
450.0
 21
-250.0
 31
0.0
  0
LINE
  5
F8
330
1B
100
AcDbEntity
 67
     1
  8
0
  6
Continuous
 62
     7
370
    25
100
AcDbLine
 10
240.4142135624
 20
75.0
 30
0.0
 11
240.4142135624
 21
-145.0
 31
0.0
  0
LINE
  5
F9
330
1B
100
AcDbEntity
 67
     1
  8
0
  6
Continuous
 62
     7
370
    25
100
AcDbLine
 10
-175.0
 20
140.4142135624
 30
0.0
 11
175.0
 21
140.4142135624
 31
0.0
  0
LINE
  5
FA
330
1B
100
AcDbEntity
 67
     1
  8
0
  6
Continuous
 62
     7
370
    25
100
AcDbLine
 10
-240.4142135624
 20
-145.0
 30
0.0
 11
-240.4142135624
 21
75.0
 31
0.0
  0
LINE
  5
FB
330
1B
100
AcDbEntity
 67
     1
  8
0
  6
Continuous
 62
     7
370
    25
100
AcDbLine
 10
175.0
 20
-210.4142135624
 30
0.0
 11
-175.0
 21
-210.4142135624
 31
0.0
  0
LINE
  5
FC
330
1B
100
AcDbEntity
 67
     1
  8
0
  6
Continuous
 62
     7
370
    25
100
AcDbLine
 10
-410.0
 20
-290.0
 30
0.0
 11
410.0
 21
-290.0
 31
0.0
  0
LINE
  5
FD
330
1B
100
AcDbEntity
 67
     1
  8
0
  6
Continuous
 62
     7
370
    25
100
AcDbLine
 10
-239.7071067812
 20
75.0
 30
0.0
 11
-239.7071067812
 21
-145.0
 31
0.0
  0
LINE
  5
FE
330
1B
100
AcDbEntity
 67
     1
  8
0
  6
Continuous
 62
     7
370
    25
100
AcDbLine
 10
-235.0
 20
-145.0
 30
0.0
 11
-240.4142135624
 21
-145.0
 31
0.0
  0
LINE
  5
FF
330
1B
100
AcDbEntity
 67
     1
  8
0
  6
Continuous
 62
     7
370
    25
100
AcDbLine
 10
-240.4142135624
 20
75.0
 30
0.0
 11
-235.0
 21
75.0
 31
0.0
  0
LINE
  5
100
330
1B
100
AcDbEntity
 67
     1
  8
0
  6
Continuous
 62
     7
370
    25
100
AcDbLine
 10
-175.0
 20
-205.0
 30
0.0
 11
-175.0
 21
-210.4142135624
 31
0.0
  0
LINE
  5
101
330
1B
100
AcDbEntity
 67
     1
  8
0
  6
Continuous
 62
     7
370
    25
100
AcDbLine
 10
240.4142135624
 20
75.0
 30
0.0
 11
235.0
 21
75.0
 31
0.0
  0
LINE
  5
102
330
1B
100
AcDbEntity
 67
     1
  8
0
  6
Continuous
 62
     7
370
    25
100
AcDbLine
 10
175.0
 20
140.4142135624
 30
0.0
 11
175.0
 21
135.0
 31
0.0
  0
LINE
  5
103
330
1B
100
AcDbEntity
 67
     1
  8
0
  6
Continuous
 62
     7
370
    25
100
AcDbLine
 10
235.0
 20
-145.0
 30
0.0
 11
240.4142135624
 21
-145.0
 31
0.0
  0
LINE
  5
104
330
1B
100
AcDbEntity
 67
     1
  8
0
  6
Continuous
 62
     7
370
    25
100
AcDbLine
 10
239.7071067812
 20
-145.0
 30
0.0
 11
239.7071067812
 21
75.0
 31
0.0
  0
LINE
  5
105
330
1B
100
AcDbEntity
 67
     1
  8
0
  6
Continuous
 62
     7
370
    25
100
AcDbLine
 10
175.0
 20
139.7071067812
 30
0.0
 11
-175.0
 21
139.7071067812
 31
0.0
  0
LINE
  5
106
330
1B
100
AcDbEntity
 67
     1
  8
0
  6
Continuous
 62
     7
370
    25
100
AcDbLine
 10
-175.0
 20
140.4142135624
 30
0.0
 11
-175.0
 21
135.0
 31
0.0
  0
LINE
  5
107
330
1B
100
AcDbEntity
 67
     1
  8
0
  6
Continuous
 62
     7
370
    25
100
AcDbLine
 10
175.0
 20
-205.0
 30
0.0
 11
175.0
 21
-210.4142135624
 31
0.0
  0
LINE
  5
108
330
1B
100
AcDbEntity
 67
     1
  8
0
  6
Continuous
 62
     7
370
    25
100
AcDbLine
 10
-175.0
 20
-209.7071067812
 30
0.0
 11
175.0
 21
-209.7071067812
 31
0.0
  0
LINE
  5
109
330
1B
100
AcDbEntity
 67
     1
  8
0
  6
Continuous
 62
     7
370
    25
100
AcDbLine
 10
235.2928932188
 20
75.0
 30
0.0
 11
235.2928932188
 21
-145.0
 31
0.0
  0
LINE
  5
10A
330
1B
100
AcDbEntity
 67
     1
  8
0
  6
Continuous
 62
     7
370
    25
100
AcDbLine
 10
-175.0
 20
135.2928932188
 30
0.0
 11
175.0
 21
135.2928932188
 31
0.0
  0
LINE
  5
10B
330
1B
100
AcDbEntity
 67
     1
  8
0
  6
Continuous
 62
     7
370
    25
100
AcDbLine
 10
175.0
 20
-205.2928932188
 30
0.0
 11
-175.0
 21
-205.2928932188
 31
0.0
  0
LINE
  5
10C
330
1B
100
AcDbEntity
 67
     1
  8
0
  6
Continuous
 62
     7
370
    25
100
AcDbLine
 10
-235.2928932188
 20
-145.0
 30
0.0
 11
-235.2928932188
 21
75.0
 31
0.0
  0
LINE
  5
10D
330
1B
100
AcDbEntity
 67
     1
  8
0
  6
Continuous
 62
     7
370
    25
100
AcDbLine
 10
175.0
 20
135.0
 30
0.0
 11
-175.0
 21
135.0
 31
0.0
  0
LINE
  5
10E
330
1B
100
AcDbEntity
 67
     1
  8
0
  6
Continuous
 62
     7
370
    25
100
AcDbLine
 10
-175.0
 20
-205.0
 30
0.0
 11
175.0
 21
-205.0
 31
0.0
  0
LINE
  5
10F
330
1B
100
AcDbEntity
 67
     1
  8
0
  6
Continuous
 62
     7
370
    25
100
AcDbLine
 10
235.0
 20
-145.0
 30
0.0
 11
235.0
 21
75.0
 31
0.0
  0
LINE
  5
110
330
1B
100
AcDbEntity
 67
     1
  8
0
  6
Continuous
 62
     7
370
    25
100
AcDbLine
 10
-235.0
 20
75.0
 30
0.0
 11
-235.0
 21
-145.0
 31
0.0
  0
ARC
  5
111
330
1B
100
AcDbEntity
 67
     1
  8
0
  6
Continuous
 62
     7
370
    25
100
AcDbCircle
 10
-449.0
 20
259.0
 30
0.0
 40
1.0
100
AcDbArc
 50
90.0
 51
180.0
  0
ARC
  5
112
330
1B
100
AcDbEntity
 67
     1
  8
0
  6
Continuous
 62
     7
370
    25
100
AcDbCircle
 10
-449.0
 20
249.0
 30
0.0
 40
0.9999999999998863
100
AcDbArc
 50
180.0
 51
270.0
  0
ARC
  5
113
330
1B
100
AcDbEntity
 67
     1
  8
0
  6
Continuous
 62
     7
370
    25
100
AcDbCircle
 10
449.0
 20
259.0
 30
0.0
 40
0.9999999999999432
100
AcDbArc
 50
360.0
 51
90.0
  0
ARC
  5
114
330
1B
100
AcDbEntity
 67
     1
  8
0
  6
Continuous
 62
     7
370
    25
100
AcDbCircle
 10
449.0
 20
249.0
 30
0.0
 40
0.9999999999999432
100
AcDbArc
 50
270.0
 51
0.0
  0
ARC
  5
115
330
1B
100
AcDbEntity
 67
     1
  8
0
  6
Continuous
 62
     7
370
    25
100
AcDbCircle
 10
175.0
 20
-145.0
 30
0.0
 40
65.41421356237313
100
AcDbArc
 50
270.0
 51
0.0
  0
ARC
  5
116
330
1B
100
AcDbEntity
 67
     1
  8
0
  6
Continuous
 62
     7
370
    25
100
AcDbCircle
 10
175.0
 20
75.0
 30
0.0
 40
65.41421356237312
100
AcDbArc
 50
0.0
 51
90.0
  0
ARC
  5
117
330
1B
100
AcDbEntity
 67
     1
  8
0
  6
Continuous
 62
     7
370
    25
100
AcDbCircle
 10
-175.0
 20
75.0
 30
0.0
 40
65.41421356237315
100
AcDbArc
 50
90.0
 51
180.0
  0
ARC
  5
118
330
1B
100
AcDbEntity
 67
     1
  8
0
  6
Continuous
 62
     7
370
    25
100
AcDbCircle
 10
-175.0
 20
-145.0
 30
0.0
 40
65.41421356237313
100
AcDbArc
 50
180.0
 51
270.0
  0
ARC
  5
119
330
1B
100
AcDbEntity
 67
     1
  8
0
  6
Continuous
 62
     7
370
    25
100
AcDbCircle
 10
-175.0
 20
-145.0
 30
0.0
 40
64.70710678118644
100
AcDbArc
 50
180.0
 51
270.0
  0
ARC
  5
11A
330
1B
100
AcDbEntity
 67
     1
  8
0
  6
Continuous
 62
     7
370
    25
100
AcDbCircle
 10
175.0
 20
75.0
 30
0.0
 40
64.70710678118652
100
AcDbArc
 50
0.0
 51
90.0
  0
ARC
  5
11B
330
1B
100
AcDbEntity
 67
     1
  8
0
  6
Continuous
 62
     7
370
    25
100
AcDbCircle
 10
175.0
 20
-145.0
 30
0.0
 40
64.70710678118644
100
AcDbArc
 50
270.0
 51
0.0
  0
ARC
  5
11C
330
1B
100
AcDbEntity
 67
     1
  8
0
  6
Continuous
 62
     7
370
    25
100
AcDbCircle
 10
-175.0
 20
75.0
 30
0.0
 40
64.7071067811865
100
AcDbArc
 50
90.0
 51
180.0
  0
ARC
  5
11D
330
1B
100
AcDbEntity
 67
     1
  8
0
  6
Continuous
 62
     7
370
    25
100
AcDbCircle
 10
175.0
 20
-145.0
 30
0.0
 40
60.29289321881342
100
AcDbArc
 50
270.0
 51
0.0
  0
ARC
  5
11E
330
1B
100
AcDbEntity
 67
     1
  8
0
  6
Continuous
 62
     7
370
    25
100
AcDbCircle
 10
-175.0
 20
75.0
 30
0.0
 40
60.29289321881349
100
AcDbArc
 50
90.0
 51
180.0
  0
ARC
  5
11F
330
1B
100
AcDbEntity
 67
     1
  8
0
  6
Continuous
 62
     7
370
    25
100
AcDbCircle
 10
175.0
 20
75.0
 30
0.0
 40
60.29289321881345
100
AcDbArc
 50
0.0
 51
90.0
  0
ARC
  5
120
330
1B
100
AcDbEntity
 67
     1
  8
0
  6
Continuous
 62
     7
370
    25
100
AcDbCircle
 10
-175.0
 20
-145.0
 30
0.0
 40
60.29289321881345
100
AcDbArc
 50
180.0
 51
270.0
  0
ARC
  5
121
330
1B
100
AcDbEntity
 67
     1
  8
0
  6
Continuous
 62
     7
370
    25
100
AcDbCircle
 10
175.0
 20
75.0
 30
0.0
 40
60.00000000000004
100
AcDbArc
 50
0.0
 51
90.0
  0
ARC
  5
122
330
1B
100
AcDbEntity
 67
     1
  8
0
  6
Continuous
 62
     7
370
    25
100
AcDbCircle
 10
175.0
 20
-145.0
 30
0.0
 40
60.00000000000011
100
AcDbArc
 50
270.0
 51
0.0
  0
ARC
  5
123
330
1B
100
AcDbEntity
 67
     1
  8
0
  6
Continuous
 62
     7
370
    25
100
AcDbCircle
 10
-175.0
 20
75.0
 30
0.0
 40
60.00000000000011
100
AcDbArc
 50
90.0
 51
180.0
  0
ARC
  5
124
330
1B
100
AcDbEntity
 67
     1
  8
0
  6
Continuous
 62
     7
370
    25
100
AcDbCircle
 10
-175.0
 20
-145.0
 30
0.0
 40
60.00000000000011
100
AcDbArc
 50
180.0
 51
270.0
  0
VIEWPORT
  5
273
330
1B
100
AcDbEntity
 67
     1
  8
0
100
AcDbViewport
 10
0.0
 20
0.0
 30
0.0
 40
205.6
 41
156.0
 68
     1
 69
     1
 12
0.0
 22
-32.5
 13
0.0
 23
0.0
 14
10.0
 24
10.0
 15
10.0
 25
10.0
 16
0.0
 26
0.0
 36
1.0
 17
0.0
 27
0.0
 37
0.0
 42
50.0
 43
0.0
 44
0.0
 45
696.5369649805
 50
0.0
 51
0.0
 72
   100
 90
   557152
  1

281
     0
 71
     1
 74
     0
110
0.0
120
0.0
130
0.0
111
1.0
121
0.0
131
0.0
112
0.0
122
1.0
132
0.0
 79
     0
146
0.0
  0
ENDSEC
  0
SECTION
  2
OBJECTS
  0
DICTIONARY
  5
C
330
0
100
AcDbDictionary
281
     1
  3
ACAD_GROUP
350
D
  3
ACAD_LAYOUT
350
1A
  3
ACAD_MLINESTYLE
350
17
  3
ACAD_PLOTSETTINGS
350
19
  3
ACAD_PLOTSTYLENAME
350
E
  3
ACAD_SCALELIST
350
47
  0
DICTIONARY
  5
D
102
{ACAD_REACTORS
330
C
102
}
330
C
100
AcDbDictionary
281
     1
  0
DICTIONARY
  5
1A
102
{ACAD_REACTORS
330
C
102
}
330
C
100
AcDbDictionary
281
     1
  3
_Bottom
350
150
  3
_Front
350
170
  3
_Isometric
350
1A2
  3
_Left
350
26
  3
_Top
350
1E
  3
Model
350
22
  0
DICTIONARY
  5
17
102
{ACAD_REACTORS
330
C
102
}
330
C
100
AcDbDictionary
281
     1
  3
Standard
350
18
  0
DICTIONARY
  5
19
102
{ACAD_REACTORS
330
C
102
}
330
C
100
AcDbDictionary
281
     1
  0
ACDBDICTIONARYWDFLT
  5
E
102
{ACAD_REACTORS
330
C
102
}
330
C
100
AcDbDictionary
281
     1
  3
Normal
350
F
100
AcDbDictionaryWithDefault
340
F
  0
DICTIONARY
  5
47
102
{ACAD_REACTORS
330
C
102
}
330
C
100
AcDbDictionary
281
     1
  3
A0
350
48
  3
A1
350
49
  3
A2
350
4A
  3
A3
350
4B
  3
A4
350
4C
  3
A5
350
4D
  3
A6
350
4E
  3
A7
350
4F
  3
A8
350
50
  3
A9
350
51
  3
B0
350
52
  3
B1
350
53
  3
B2
350
54
  3
B3
350
55
  3
B4
350
56
  3
B5
350
57
  3
B6
350
58
  3
B7
350
59
  3
B8
350
5A
  3
B9
350
5B
  3
C0
350
5C
  3
C1
350
5D
  3
C2
350
5E
  3
C3
350
5F
  3
C4
350
60
  3
C5
350
61
  3
C6
350
62
  3
C7
350
63
  3
C8
350
64
  3
C9
350
65
  3
D0
350
66
  3
D1
350
67
  3
D2
350
68
  0
LAYOUT
  5
150
102
{ACAD_REACTORS
330
1A
102
}
330
1A
100
AcDbPlotSettings
  1

  2
none_device
  4
ISO_A4_(210.00_x_297.00_MM)
  6

 40
7.5
 41
20.0
 42
7.5
 43
20.0
 44
210.0
 45
297.0
 46
0.0
 47
0.0
 48
0.0
 49
0.0
140
0.0
141
0.0
142
1.0
143
3.5019455253
 70
   688
 72
     1
 73
     1
 74
     1
  7

 75
     0
147
0.2855555556
148
450.0
149
290.0
100
AcDbLayout
  1
_Bottom
 70
     1
 71
     3
 10
0.0
 20
0.0
 11
0.0
 21
0.0
 12
0.0
 22
0.0
 32
0.0
 14
0.0
 24
0.0
 34
0.0
 15
0.0
 25
0.0
 35
0.0
146
0.0
 13
0.0
 23
0.0
 33
0.0
 16
1.0
 26
0.0
 36
0.0
 17
0.0
 27
1.0
 37
0.0
 76
     0
330
14F
331
277
  0
LAYOUT
  5
170
102
{ACAD_REACTORS
330
1A
102
}
330
1A
100
AcDbPlotSettings
  1

  2
none_device
  4
ISO_A4_(210.00_x_297.00_MM)
  6

 40
7.5
 41
20.0
 42
7.5
 43
20.0
 44
210.0
 45
297.0
 46
0.0
 47
0.0
 48
0.0
 49
0.0
140
0.0
141
0.0
142
1.0
143
3.5019455253
 70
   688
 72
     1
 73
     1
 74
     1
  7

 75
     0
147
0.2855555556
148
450.0
149
290.0
100
AcDbLayout
  1
_Front
 70
     1
 71
     4
 10
0.0
 20
0.0
 11
0.0
 21
0.0
 12
0.0
 22
0.0
 32
0.0
 14
0.0
 24
0.0
 34
0.0
 15
0.0
 25
0.0
 35
0.0
146
0.0
 13
0.0
 23
0.0
 33
0.0
 16
1.0
 26
0.0
 36
0.0
 17
0.0
 27
1.0
 37
0.0
 76
     0
330
16F
331
279
  0
LAYOUT
  5
1A2
102
{ACAD_REACTORS
330
1A
102
}
330
1A
100
AcDbPlotSettings
  1

  2
none_device
  4
ISO_A4_(210.00_x_297.00_MM)
  6

 40
7.5
 41
20.0
 42
7.5
 43
20.0
 44
210.0
 45
297.0
 46
0.0
 47
0.0
 48
0.0
 49
0.0
140
0.0
141
0.0
142
1.0
143
3.5019455253
 70
   688
 72
     1
 73
     1
 74
     1
  7

 75
     0
147
0.2855555556
148
450.0
149
290.0
100
AcDbLayout
  1
_Isometric
 70
     1
 71
     5
 10
0.0
 20
0.0
 11
0.0
 21
0.0
 12
0.0
 22
0.0
 32
0.0
 14
0.0
 24
0.0
 34
0.0
 15
0.0
 25
0.0
 35
0.0
146
0.0
 13
0.0
 23
0.0
 33
0.0
 16
1.0
 26
0.0
 36
0.0
 17
0.0
 27
1.0
 37
0.0
 76
     0
330
1A1
331
27B
  0
LAYOUT
  5
26
102
{ACAD_REACTORS
330
1A
102
}
330
1A
100
AcDbPlotSettings
  1

  2
none_device
  4
ISO_A4_(210.00_x_297.00_MM)
  6

 40
7.5
 41
20.0
 42
7.5
 43
20.0
 44
210.0
 45
297.0
 46
0.0
 47
0.0
 48
0.0
 49
0.0
140
0.0
141
0.0
142
1.0
143
3.5019455253
 70
   688
 72
     1
 73
     1
 74
     1
  7

 75
     0
147
0.2855555556
148
450.0
149
290.0
100
AcDbLayout
  1
_Left
 70
     1
 71
     2
 10
0.0
 20
0.0
 11
0.0
 21
0.0
 12
0.0
 22
0.0
 32
0.0
 14
0.0
 24
0.0
 34
0.0
 15
0.0
 25
0.0
 35
0.0
146
0.0
 13
0.0
 23
0.0
 33
0.0
 16
1.0
 26
0.0
 36
0.0
 17
0.0
 27
1.0
 37
0.0
 76
     0
330
23
331
275
  0
LAYOUT
  5
1E
102
{ACAD_REACTORS
330
1A
102
}
330
1A
100
AcDbPlotSettings
  1

  2
none_device
  4
ISO_A4_(210.00_x_297.00_MM)
  6

 40
7.5
 41
20.0
 42
7.5
 43
20.0
 44
210.0
 45
297.0
 46
0.0
 47
0.0
 48
0.0
 49
0.0
140
0.0
141
0.0
142
1.0
143
3.5019455253
 70
   688
 72
     1
 73
     1
 74
     1
  7

 75
     0
147
0.2855555556
148
450.0
149
290.0
100
AcDbLayout
  1
_Top
 70
     1
 71
     1
 10
-520.0389105058
 20
-316.2645914397
 11
520.0389105058
 21
419.1439688716
 12
0.0
 22
0.0
 32
0.0
 14
-450.0
 24
-290.0
 34
0.0
 15
450.0
 25
260.0
 35
0.0
146
0.0
 13
0.0
 23
0.0
 33
0.0
 16
1.0
 26
0.0
 36
0.0
 17
0.0
 27
1.0
 37
0.0
 76
     0
330
1B
331
273
  0
LAYOUT
  5
22
102
{ACAD_REACTORS
330
1A
102
}
330
1A
100
AcDbPlotSettings
  1

  2
none_device
  4
ANSI_A_(11.00_x_8.50_Inches)
  6

 40
6.35
 41
19.05
 42
6.35000508
 43
19.05000254
 44
279.4
 45
215.9
 46
133.34999746
 47
98.88854873
 48
0.0
 49
0.0
140
0.0
141
0.0
142
0.0121
143
1.0
 70
  1696
 72
     0
 73
     0
 74
     0
  7

 75
     0
147
0.0179189148
148
-1300.4909072572
149
0.0
100
AcDbLayout
  1
Model
 70
     1
 71
     0
 10
0.0
 20
0.0
 11
420.0
 21
297.0
 12
0.0
 22
0.0
 32
0.0
 14
-450.0
 24
-65.0
 34
0.0
 15
450.0
 25
0.0
 35
0.0
146
0.0
 13
0.0
 23
0.0
 33
0.0
 16
1.0
 26
0.0
 36
0.0
 17
0.0
 27
1.0
 37
0.0
 76
     0
330
1F
331
29
  0
MLINESTYLE
  5
18
102
{ACAD_REACTORS
330
17
102
}
330
17
100
AcDbMlineStyle
  2
Standard
 70
     0
  3

 62
   256
 51
90.0
 52
90.0
 71
     2
 49
0.5
 62
   256
  6
BYLAYER
 49
-0.5
 62
   256
  6
BYLAYER
  0
ACDBPLACEHOLDER
  5
F
102
{ACAD_REACTORS
330
E
102
}
330
E
  0
SCALE
  5
48
102
{ACAD_REACTORS
330
47
102
}
330
47
100
AcDbScale
 70
     0
300
1:1
140
1.0
141
1.0
290
     1
  0
SCALE
  5
49
102
{ACAD_REACTORS
330
47
102
}
330
47
100
AcDbScale
 70
     0
300
1:2
140
1.0
141
2.0
290
     0
  0
SCALE
  5
4A
102
{ACAD_REACTORS
330
47
102
}
330
47
100
AcDbScale
 70
     0
300
1:4
140
1.0
141
4.0
290
     0
  0
SCALE
  5
4B
102
{ACAD_REACTORS
330
47
102
}
330
47
100
AcDbScale
 70
     0
300
1:5
140
1.0
141
5.0
290
     0
  0
SCALE
  5
4C
102
{ACAD_REACTORS
330
47
102
}
330
47
100
AcDbScale
 70
     0
300
1:8
140
1.0
141
8.0
290
     0
  0
SCALE
  5
4D
102
{ACAD_REACTORS
330
47
102
}
330
47
100
AcDbScale
 70
     0
300
1:10
140
1.0
141
10.0
290
     0
  0
SCALE
  5
4E
102
{ACAD_REACTORS
330
47
102
}
330
47
100
AcDbScale
 70
     0
300
1:16
140
1.0
141
16.0
290
     0
  0
SCALE
  5
4F
102
{ACAD_REACTORS
330
47
102
}
330
47
100
AcDbScale
 70
     0
300
1:20
140
1.0
141
20.0
290
     0
  0
SCALE
  5
50
102
{ACAD_REACTORS
330
47
102
}
330
47
100
AcDbScale
 70
     0
300
1:30
140
1.0
141
30.0
290
     0
  0
SCALE
  5
51
102
{ACAD_REACTORS
330
47
102
}
330
47
100
AcDbScale
 70
     0
300
1:40
140
1.0
141
40.0
290
     0
  0
SCALE
  5
52
102
{ACAD_REACTORS
330
47
102
}
330
47
100
AcDbScale
 70
     0
300
1:50
140
1.0
141
50.0
290
     0
  0
SCALE
  5
53
102
{ACAD_REACTORS
330
47
102
}
330
47
100
AcDbScale
 70
     0
300
1:100
140
1.0
141
100.0
290
     0
  0
SCALE
  5
54
102
{ACAD_REACTORS
330
47
102
}
330
47
100
AcDbScale
 70
     0
300
2:1
140
2.0
141
1.0
290
     0
  0
SCALE
  5
55
102
{ACAD_REACTORS
330
47
102
}
330
47
100
AcDbScale
 70
     0
300
4:1
140
4.0
141
1.0
290
     0
  0
SCALE
  5
56
102
{ACAD_REACTORS
330
47
102
}
330
47
100
AcDbScale
 70
     0
300
8:1
140
8.0
141
1.0
290
     0
  0
SCALE
  5
57
102
{ACAD_REACTORS
330
47
102
}
330
47
100
AcDbScale
 70
     0
300
10:1
140
10.0
141
1.0
290
     0
  0
SCALE
  5
58
102
{ACAD_REACTORS
330
47
102
}
330
47
100
AcDbScale
 70
     0
300
100:1
140
100.0
141
1.0
290
     0
  0
SCALE
  5
59
102
{ACAD_REACTORS
330
47
102
}
330
47
100
AcDbScale
 70
     0
300
1/128" = 1'-0"
140
0.0078125
141
12.0
290
     0
  0
SCALE
  5
5A
102
{ACAD_REACTORS
330
47
102
}
330
47
100
AcDbScale
 70
     0
300
1/64" = 1'-0"
140
0.015625
141
12.0
290
     0
  0
SCALE
  5
5B
102
{ACAD_REACTORS
330
47
102
}
330
47
100
AcDbScale
 70
     0
300
1/32" = 1'-0"
140
0.03125
141
12.0
290
     0
  0
SCALE
  5
5C
102
{ACAD_REACTORS
330
47
102
}
330
47
100
AcDbScale
 70
     0
300
1/16" = 1'-0"
140
0.0625
141
12.0
290
     0
  0
SCALE
  5
5D
102
{ACAD_REACTORS
330
47
102
}
330
47
100
AcDbScale
 70
     0
300
3/32" = 1'-0"
140
0.09375
141
12.0
290
     0
  0
SCALE
  5
5E
102
{ACAD_REACTORS
330
47
102
}
330
47
100
AcDbScale
 70
     0
300
1/8" = 1'-0"
140
0.125
141
12.0
290
     0
  0
SCALE
  5
5F
102
{ACAD_REACTORS
330
47
102
}
330
47
100
AcDbScale
 70
     0
300
3/16" = 1'-0"
140
0.1875
141
12.0
290
     0
  0
SCALE
  5
60
102
{ACAD_REACTORS
330
47
102
}
330
47
100
AcDbScale
 70
     0
300
1/4" = 1'-0"
140
0.25
141
12.0
290
     0
  0
SCALE
  5
61
102
{ACAD_REACTORS
330
47
102
}
330
47
100
AcDbScale
 70
     0
300
3/8" = 1'-0"
140
0.375
141
12.0
290
     0
  0
SCALE
  5
62
102
{ACAD_REACTORS
330
47
102
}
330
47
100
AcDbScale
 70
     0
300
1/2" = 1'-0"
140
0.5
141
12.0
290
     0
  0
SCALE
  5
63
102
{ACAD_REACTORS
330
47
102
}
330
47
100
AcDbScale
 70
     0
300
3/4" = 1'-0"
140
0.75
141
12.0
290
     0
  0
SCALE
  5
64
102
{ACAD_REACTORS
330
47
102
}
330
47
100
AcDbScale
 70
     0
300
1" = 1'-0"
140
1.0
141
12.0
290
     0
  0
SCALE
  5
65
102
{ACAD_REACTORS
330
47
102
}
330
47
100
AcDbScale
 70
     0
300
1-1/2" = 1'-0"
140
1.5
141
12.0
290
     0
  0
SCALE
  5
66
102
{ACAD_REACTORS
330
47
102
}
330
47
100
AcDbScale
 70
     0
300
3" = 1'-0"
140
3.0
141
12.0
290
     0
  0
SCALE
  5
67
102
{ACAD_REACTORS
330
47
102
}
330
47
100
AcDbScale
 70
     0
300
6" = 1'-0"
140
6.0
141
12.0
290
     0
  0
SCALE
  5
68
102
{ACAD_REACTORS
330
47
102
}
330
47
100
AcDbScale
 70
     0
300
1'-0" = 1'-0"
140
12.0
141
12.0
290
     0
  0
ENDSEC
  0
EOF
